0
SECTION
2
HEADER
9
$MEASUREMENT
70
1
0
ENDSEC
0
SECTION
2
TABLES
0
TABLE
2
LTYPE
0
LTYPE
72
65
70
64
2
CONTINUOUS
3
______
73
0
40
0
0
ENDTAB
0
TABLE
2
LAYER
0
LAYER
2
DEFAULT_255_1_388
70
0
62
255
6
CONTINUOUS
0
LAYER
2
DEFAULT_255_2_778_3
70
0
62
255
6
CONTINUOUS
0
LAYER
2
DEFAULT_255_2_778
70
0
62
255
6
CONTINUOUS
0
ENDTAB
0
ENDSEC
0
SECTION
2
ENTITIES
0
LINE
8
DEFAULT_255_1_388
10
4.5386985
20
9.4954148
11
4.5386985
21
8.1735
0
LINE
8
DEFAULT_255_1_388
10
4.5386985
20
8.1735
11
4.3706355
21
8.1735
0
LINE
8
DEFAULT_255_1_388
10
4.3706355
20
8.1735
11
4.3706355
21
9.287595
0
LINE
8
DEFAULT_255_1_388
10
4.3706355
20
9.287595
11
4.033606
21
9.1638066
0
LINE
8
DEFAULT_255_1_388
10
4.033606
20
9.1638066
11
4.033606
21
9.3156055
0
LINE
8
DEFAULT_255_1_388
10
4.033606
20
9.3156055
11
4.5124951
21
9.4954148
0
LINE
8
DEFAULT_255_1_388
10
4.5124951
20
9.4954148
11
4.5386985
21
9.4954148
0
LINE
8
DEFAULT_255_1_388
10
5.2461895
20
9.4890898
11
5.2461895
21
8.3153596
0
LINE
8
DEFAULT_255_1_388
10
5.2461895
20
8.3153596
11
5.8696489
21
8.3153596
0
LINE
8
DEFAULT_255_1_388
10
5.8696489
20
8.3153596
11
5.8696489
21
8.1735
0
LINE
8
DEFAULT_255_1_388
10
5.8696489
20
8.1735
11
5.0718015
21
8.1735
0
LINE
8
DEFAULT_255_1_388
10
5.0718015
20
8.1735
11
5.0718015
21
9.4890898
0
LINE
8
DEFAULT_255_1_388
10
5.0718015
20
9.4890898
11
5.2461895
21
9.4890898
0
LINE
8
DEFAULT_255_1_388
10
6.5735256
20
9.4954148
11
6.5735256
21
8.1735
0
LINE
8
DEFAULT_255_1_388
10
6.5735256
20
8.1735
11
6.4054626
21
8.1735
0
LINE
8
DEFAULT_255_1_388
10
6.4054626
20
8.1735
11
6.4054626
21
9.287595
0
LINE
8
DEFAULT_255_1_388
10
6.4054626
20
9.287595
11
6.0684331
21
9.1638066
0
LINE
8
DEFAULT_255_1_388
10
6.0684331
20
9.1638066
11
6.0684331
21
9.3156055
0
LINE
8
DEFAULT_255_1_388
10
6.0684331
20
9.3156055
11
6.5473223
21
9.4954148
0
LINE
8
DEFAULT_255_1_388
10
6.5473223
20
9.4954148
11
6.5735256
21
9.4954148
0
LINE
8
DEFAULT_255_1_388
10
8.1177173
20
9.4890898
11
8.1177173
21
8.1735
0
LINE
8
DEFAULT_255_1_388
10
8.1177173
20
8.1735
11
7.9433293
21
8.1735
0
LINE
8
DEFAULT_255_1_388
10
7.9433293
20
8.1735
11
7.2810166
21
9.1872993
0
LINE
8
DEFAULT_255_1_388
10
7.2810166
20
9.1872993
11
7.2810166
21
8.1735
0
LINE
8
DEFAULT_255_1_388
10
7.2810166
20
8.1735
11
7.1066287
21
8.1735
0
LINE
8
DEFAULT_255_1_388
10
7.1066287
20
8.1735
11
7.1066287
21
9.4890898
0
LINE
8
DEFAULT_255_1_388
10
7.1066287
20
9.4890898
11
7.2810166
21
9.4890898
0
LINE
8
DEFAULT_255_1_388
10
7.2810166
20
9.4890898
11
7.9451365
21
8.4707727
0
LINE
8
DEFAULT_255_1_388
10
7.9451365
20
8.4707727
11
7.9451365
21
9.4890898
0
LINE
8
DEFAULT_255_1_388
10
7.9451365
20
9.4890898
11
8.1177173
21
9.4890898
0
LINE
8
DEFAULT_255_1_388
10
4.8513318
20
-1.6939618
11
4.8513318
21
-1.8304
0
LINE
8
DEFAULT_255_1_388
10
4.8513318
20
-1.8304
11
3.9893313
21
-1.8304
0
LINE
8
DEFAULT_255_1_388
10
3.9893313
20
-1.8304
11
3.9893313
21
-1.7102259
0
LINE
8
DEFAULT_255_1_388
10
3.9893313
20
-1.7102259
11
4.4447278
21
-1.2042298
0
LINE
8
DEFAULT_255_1_388
10
4.1311909
20
-0.9024393
11
3.9640315
21
-0.9024393
0
LINE
8
DEFAULT_255_1_388
10
4.5432163
20
-1.311754
11
4.1908262
21
-1.6939618
0
LINE
8
DEFAULT_255_1_388
10
4.1908262
20
-1.6939618
11
4.8513318
21
-1.6939618
0
ARC
8
DEFAULT_255_1_388
10
2.9271337
20
0.1377983
40
2.0258655
50
318.5132526
51
320.7829045
0
ARC
8
DEFAULT_255_1_388
10
3.5219294
20
-0.3463071
40
1.2589638
50
320.7372878
51
323.9739031
0
ARC
8
DEFAULT_255_1_388
10
3.9628226
20
-0.6657446
40
0.7145141
50
323.8962701
51
328.64194
0
ARC
8
DEFAULT_255_1_388
10
4.1930484
20
-0.8077455
40
0.4440242
50
328.8294576
51
331.7891185
0
ARC
8
DEFAULT_255_1_388
10
4.3052804
20
-0.8656626
40
0.3177517
50
331.4254512
51
352.9365785
0
ARC
8
DEFAULT_255_1_388
10
4.3205804
20
-0.869095
40
0.3021496
50
353.2257659
51
0.0166158
0
ARC
8
DEFAULT_255_1_388
10
4.3442564
20
-0.8665106
40
0.2784847
50
359.486299
51
15.9343185
0
ARC
8
DEFAULT_255_1_388
10
4.4012831
20
-0.8511731
40
0.2194403
50
16.1712913
51
43.5286088
0
ARC
8
DEFAULT_255_1_388
10
4.4099776
20
-0.8424809
40
0.2071504
50
43.4417391
51
83.1661095
0
ARC
8
DEFAULT_255_1_388
10
4.3948937
20
-0.9253684
40
0.2912888
50
82.160179
51
90.1505708
0
ARC
8
DEFAULT_255_1_388
10
4.3913418
20
-0.9857721
40
0.3517025
50
89.5460741
51
102.5418361
0
ARC
8
DEFAULT_255_1_388
10
4.3640138
20
-0.8698067
40
0.2325748
50
102.1738499
51
129.206123
0
ARC
8
DEFAULT_255_1_388
10
4.3551592
20
-0.8558336
40
0.2161591
50
129.72865
51
135.753947
0
ARC
8
DEFAULT_255_1_388
10
4.3688074
20
-0.8667272
40
0.2335433
50
136.1757367
51
166.3673339
0
ARC
8
DEFAULT_255_1_388
10
4.4820762
20
-0.8970852
40
0.3507873
50
165.9090694
51
178.8684636
0
ARC
8
DEFAULT_255_1_388
10
4.5796534
20
-0.9023737
40
0.4484624
50
178.4391136
51
180.0083808
0
ARC
8
DEFAULT_255_1_388
10
4.4217235
20
-0.8979803
40
0.4577138
50
163.2878482
51
180.5581842
0
ARC
8
DEFAULT_255_1_388
10
4.3315276
20
-0.8731607
40
0.3641968
50
133.4540601
51
162.947111
0
ARC
8
DEFAULT_255_1_388
10
4.3516158
20
-0.8945211
40
0.3935189
50
100.7869829
51
133.4382499
0
ARC
8
DEFAULT_255_1_388
10
4.3907403
20
-1.0687601
40
0.5720313
50
89.660664
51
101.3702276
0
ARC
8
DEFAULT_255_1_388
10
4.3982012
20
-1.0618737
40
0.5651495
50
78.2172678
51
90.412935
0
ARC
8
DEFAULT_255_1_388
10
4.4381478
20
-0.8791489
40
0.378122
50
55.9269121
51
78.4888449
0
ARC
8
DEFAULT_255_1_388
10
4.4602193
20
-0.8410813
40
0.3342379
50
47.929771
51
55.4049217
0
ARC
8
DEFAULT_255_1_388
10
4.4716723
20
-0.8294382
40
0.3179217
50
4.334829
51
48.0560205
0
ARC
8
DEFAULT_255_1_388
10
4.3484525
20
-0.8485513
40
0.442341
50
359.9251713
51
5.5971671
0
ARC
8
DEFAULT_255_1_388
10
4.396668
20
-0.8422272
40
0.3941854
50
337.8914027
51
358.9967534
0
ARC
8
DEFAULT_255_1_388
10
4.091425
20
-0.7244705
40
0.7213271
50
326.9132501
51
338.3508308
0
ARC
8
DEFAULT_255_1_388
10
3.6430362
20
-0.4370895
40
1.2538973
50
319.6471833
51
327.0959558
0
ARC
8
DEFAULT_255_1_388
10
3.211702
20
-0.081295
40
1.8129975
50
317.2588228
51
319.9045804
0
LINE
8
DEFAULT_255_1_388
10
5.2461895
20
-0.5148102
11
5.2461895
21
-1.6885404
0
LINE
8
DEFAULT_255_1_388
10
5.2461895
20
-1.6885404
11
5.8696489
21
-1.6885404
0
LINE
8
DEFAULT_255_1_388
10
5.8696489
20
-1.6885404
11
5.8696489
21
-1.8304
0
LINE
8
DEFAULT_255_1_388
10
5.8696489
20
-1.8304
11
5.0718015
21
-1.8304
0
LINE
8
DEFAULT_255_1_388
10
5.0718015
20
-1.8304
11
5.0718015
21
-0.5148102
0
LINE
8
DEFAULT_255_1_388
10
5.0718015
20
-0.5148102
11
5.2461895
21
-0.5148102
0
LINE
8
DEFAULT_255_1_388
10
6.8861589
20
-1.6939618
11
6.8861589
21
-1.8304
0
LINE
8
DEFAULT_255_1_388
10
6.8861589
20
-1.8304
11
6.0241584
21
-1.8304
0
LINE
8
DEFAULT_255_1_388
10
6.0241584
20
-1.8304
11
6.0241584
21
-1.7102259
0
LINE
8
DEFAULT_255_1_388
10
6.0241584
20
-1.7102259
11
6.4795549
21
-1.2042298
0
LINE
8
DEFAULT_255_1_388
10
6.1660181
20
-0.9024393
11
5.9988586
21
-0.9024393
0
LINE
8
DEFAULT_255_1_388
10
6.5780435
20
-1.311754
11
6.2256533
21
-1.6939618
0
LINE
8
DEFAULT_255_1_388
10
6.2256533
20
-1.6939618
11
6.8861589
21
-1.6939618
0
ARC
8
DEFAULT_255_1_388
10
4.9619609
20
0.1377983
40
2.0258655
50
318.5132526
51
320.7829045
0
ARC
8
DEFAULT_255_1_388
10
5.5567566
20
-0.3463071
40
1.2589638
50
320.7372878
51
323.9739031
0
ARC
8
DEFAULT_255_1_388
10
5.9976497
20
-0.6657446
40
0.7145141
50
323.8962701
51
328.64194
0
ARC
8
DEFAULT_255_1_388
10
6.2278755
20
-0.8077455
40
0.4440242
50
328.8294576
51
331.7891185
0
ARC
8
DEFAULT_255_1_388
10
6.3401075
20
-0.8656626
40
0.3177517
50
331.4254512
51
352.9365785
0
ARC
8
DEFAULT_255_1_388
10
6.3554075
20
-0.869095
40
0.3021496
50
353.2257659
51
0.0166158
0
ARC
8
DEFAULT_255_1_388
10
6.3790836
20
-0.8665106
40
0.2784847
50
359.486299
51
15.9343185
0
ARC
8
DEFAULT_255_1_388
10
6.4361102
20
-0.8511731
40
0.2194403
50
16.1712913
51
43.5286088
0
ARC
8
DEFAULT_255_1_388
10
6.4448047
20
-0.8424809
40
0.2071504
50
43.4417391
51
83.1661095
0
ARC
8
DEFAULT_255_1_388
10
6.4297208
20
-0.9253684
40
0.2912888
50
82.160179
51
90.1505708
0
ARC
8
DEFAULT_255_1_388
10
6.426169
20
-0.9857721
40
0.3517025
50
89.5460741
51
102.5418361
0
ARC
8
DEFAULT_255_1_388
10
6.398841
20
-0.8698067
40
0.2325748
50
102.1738499
51
129.206123
0
ARC
8
DEFAULT_255_1_388
10
6.3899863
20
-0.8558336
40
0.2161591
50
129.72865
51
135.753947
0
ARC
8
DEFAULT_255_1_388
10
6.4036345
20
-0.8667272
40
0.2335433
50
136.1757367
51
166.3673339
0
ARC
8
DEFAULT_255_1_388
10
6.5169034
20
-0.8970852
40
0.3507873
50
165.9090694
51
178.8684636
0
ARC
8
DEFAULT_255_1_388
10
6.6144805
20
-0.9023737
40
0.4484624
50
178.4391136
51
180.0083808
0
ARC
8
DEFAULT_255_1_388
10
6.4565507
20
-0.8979803
40
0.4577138
50
163.2878482
51
180.5581842
0
ARC
8
DEFAULT_255_1_388
10
6.3663548
20
-0.8731607
40
0.3641968
50
133.4540601
51
162.947111
0
ARC
8
DEFAULT_255_1_388
10
6.386443
20
-0.8945211
40
0.3935189
50
100.7869829
51
133.4382499
0
ARC
8
DEFAULT_255_1_388
10
6.4255675
20
-1.0687601
40
0.5720313
50
89.660664
51
101.3702276
0
ARC
8
DEFAULT_255_1_388
10
6.4330284
20
-1.0618737
40
0.5651495
50
78.2172678
51
90.412935
0
ARC
8
DEFAULT_255_1_388
10
6.4729749
20
-0.8791489
40
0.378122
50
55.9269121
51
78.4888449
0
ARC
8
DEFAULT_255_1_388
10
6.4950464
20
-0.8410813
40
0.3342379
50
47.929771
51
55.4049217
0
ARC
8
DEFAULT_255_1_388
10
6.5064995
20
-0.8294382
40
0.3179217
50
4.334829
51
48.0560205
0
ARC
8
DEFAULT_255_1_388
10
6.3832797
20
-0.8485513
40
0.442341
50
359.9251713
51
5.5971671
0
ARC
8
DEFAULT_255_1_388
10
6.4314951
20
-0.8422272
40
0.3941854
50
337.8914027
51
358.9967534
0
ARC
8
DEFAULT_255_1_388
10
6.1262521
20
-0.7244705
40
0.7213271
50
326.9132501
51
338.3508308
0
ARC
8
DEFAULT_255_1_388
10
5.6778633
20
-0.4370895
40
1.2538973
50
319.6471833
51
327.0959558
0
ARC
8
DEFAULT_255_1_388
10
5.2465291
20
-0.081295
40
1.8129975
50
317.2588228
51
319.9045804
0
LINE
8
DEFAULT_255_1_388
10
8.1177173
20
-0.5148102
11
8.1177173
21
-1.8304
0
LINE
8
DEFAULT_255_1_388
10
8.1177173
20
-1.8304
11
7.9433293
21
-1.8304
0
LINE
8
DEFAULT_255_1_388
10
7.9433293
20
-1.8304
11
7.2810166
21
-0.8166007
0
LINE
8
DEFAULT_255_1_388
10
7.2810166
20
-0.8166007
11
7.2810166
21
-1.8304
0
LINE
8
DEFAULT_255_1_388
10
7.2810166
20
-1.8304
11
7.1066287
21
-1.8304
0
LINE
8
DEFAULT_255_1_388
10
7.1066287
20
-1.8304
11
7.1066287
21
-0.5148102
0
LINE
8
DEFAULT_255_1_388
10
7.1066287
20
-0.5148102
11
7.2810166
21
-0.5148102
0
LINE
8
DEFAULT_255_1_388
10
7.2810166
20
-0.5148102
11
7.9451365
21
-1.5331273
0
LINE
8
DEFAULT_255_1_388
10
7.9451365
20
-1.5331273
11
7.9451365
21
-0.5148102
0
LINE
8
DEFAULT_255_1_388
10
7.9451365
20
-0.5148102
11
8.1177173
21
-0.5148102
0
LINE
8
DEFAULT_255_2_778_3
10
8.0605667
20
3.8365
11
13.3522667
21
3.8365
0
ARC
8
DEFAULT_255_2_778
10
8.5558666
20
5.0272046
40
0.4953175
50
179.5166395
51
201.3679384
0
ARC
8
DEFAULT_255_2_778
10
8.5838135
20
5.0591246
40
0.5333318
50
203.4679363
51
250.4136922
0
ARC
8
DEFAULT_255_2_778
10
8.7171871
20
5.3575683
40
0.8595988
50
248.7064205
51
270.3219157
0
ARC
8
DEFAULT_255_2_778
10
8.7311025
20
5.3255378
40
0.8276045
50
269.370973
51
297.1970588
0
ARC
8
DEFAULT_255_2_778
10
8.8926474
20
5.0306026
40
0.4915232
50
296.1614541
51
349.1626507
0
ARC
8
DEFAULT_255_2_778
10
8.8549447
20
5.0301585
40
0.5285235
50
349.9784472
51
0.1327573
0
ARC
8
DEFAULT_255_2_778
10
9.8787666
20
5.0272046
40
0.4953175
50
179.5166395
51
201.3679384
0
ARC
8
DEFAULT_255_2_778
10
9.9067135
20
5.0591246
40
0.5333318
50
203.4679363
51
250.4136922
0
ARC
8
DEFAULT_255_2_778
10
10.0400871
20
5.3575683
40
0.8595988
50
248.7064205
51
270.3219157
0
ARC
8
DEFAULT_255_2_778
10
10.0540025
20
5.3255378
40
0.8276045
50
269.370973
51
297.1970588
0
ARC
8
DEFAULT_255_2_778
10
10.2155474
20
5.0306026
40
0.4915232
50
296.1614541
51
349.1626507
0
ARC
8
DEFAULT_255_2_778
10
10.1778447
20
5.0301585
40
0.5285235
50
349.9784472
51
0.1327573
0
ARC
8
DEFAULT_255_2_778
10
11.2020044
20
5.027197
40
0.4956553
50
179.5160966
51
201.3583153
0
ARC
8
DEFAULT_255_2_778
10
11.2300031
20
5.0592579
40
0.5337698
50
203.469328
51
250.5378449
0
ARC
8
DEFAULT_255_2_778
10
11.3629421
20
5.3577045
40
0.8598472
50
248.8113797
51
270.3178513
0
LINE
8
DEFAULT_255_2_778
10
11.3677122
20
4.4978706
11
11.3678167
21
4.4978706
0
ARC
8
DEFAULT_255_2_778
10
11.3767975
20
5.3254048
40
0.8275829
50
269.3782253
51
297.2060025
0
ARC
8
DEFAULT_255_2_778
10
11.5383249
20
5.0306274
40
0.4916485
50
296.1701866
51
349.1622869
0
ARC
8
DEFAULT_255_2_778
10
11.5007129
20
5.0301595
40
0.5285553
50
349.9787541
51
0.132647
0
ARC
8
DEFAULT_255_2_778
10
12.5245349
20
5.0272047
40
0.4952857
50
179.5166232
51
201.3693984
0
ARC
8
DEFAULT_255_2_778
10
12.5525291
20
5.059153
40
0.5333551
50
203.4701709
51
250.4157629
0
ARC
8
DEFAULT_255_2_778
10
12.6859361
20
5.3576902
40
0.8597207
50
248.7079464
51
270.3219386
0
ARC
8
DEFAULT_255_2_778
10
12.6998528
20
5.3256619
40
0.8277286
50
269.3710482
51
297.1929475
0
ARC
8
DEFAULT_255_2_778
10
12.8614383
20
5.0306202
40
0.491535
50
296.1560147
51
349.1602687
0
ARC
8
DEFAULT_255_2_778
10
12.8237722
20
5.0301594
40
0.528496
50
349.9773142
51
0.1326685
0
ARC
8
DEFAULT_255_2_778
10
12.8569986
20
2.6458616
40
0.4952857
50
359.5166232
51
21.3693984
0
ARC
8
DEFAULT_255_2_778
10
12.8290044
20
2.6139133
40
0.5333551
50
23.4701709
51
70.4157629
0
ARC
8
DEFAULT_255_2_778
10
12.6955974
20
2.3153761
40
0.8597207
50
68.7079464
51
90.3219386
0
ARC
8
DEFAULT_255_2_778
10
12.6816807
20
2.3474044
40
0.8277286
50
89.3710482
51
117.1929475
0
ARC
8
DEFAULT_255_2_778
10
12.5200952
20
2.6424461
40
0.491535
50
116.1560147
51
169.1602687
0
ARC
8
DEFAULT_255_2_778
10
12.5577613
20
2.6429069
40
0.528496
50
169.9773142
51
180.1326685
0
ARC
8
DEFAULT_255_2_778
10
11.5339669
20
2.6458617
40
0.4953175
50
359.5166395
51
21.3679384
0
ARC
8
DEFAULT_255_2_778
10
11.50602
20
2.6139417
40
0.5333318
50
23.4679363
51
70.4136922
0
ARC
8
DEFAULT_255_2_778
10
11.3726464
20
2.315498
40
0.8595988
50
68.7064205
51
90.3219157
0
ARC
8
DEFAULT_255_2_778
10
11.358731
20
2.3475285
40
0.8276045
50
89.370973
51
117.1970588
0
ARC
8
DEFAULT_255_2_778
10
11.1971861
20
2.6424637
40
0.4915232
50
116.1614541
51
169.1626507
0
ARC
8
DEFAULT_255_2_778
10
11.2348888
20
2.6429078
40
0.5285235
50
169.9784472
51
180.1327573
0
ARC
8
DEFAULT_255_2_778
10
10.2108396
20
2.6458659
40
0.4955448
50
359.5163794
51
21.3615269
0
ARC
8
DEFAULT_255_2_778
10
10.1827238
20
2.6137429
40
0.5337927
50
23.4738583
51
70.5403434
0
ARC
8
DEFAULT_255_2_778
10
10.0497543
20
2.3152179
40
0.8599535
50
68.81297
51
90.317672
0
ARC
8
DEFAULT_255_2_778
10
10.0359009
20
2.3476182
40
0.827589
50
89.3757986
51
117.203048
0
ARC
8
DEFAULT_255_2_778
10
9.8743678
20
2.6424473
40
0.4916067
50
116.1672875
51
169.1624208
0
ARC
8
DEFAULT_255_2_778
10
9.9120115
20
2.642907
40
0.5285462
50
169.9786697
51
180.132673
0
ARC
8
DEFAULT_255_2_778
10
8.8881669
20
2.6458617
40
0.4953175
50
359.5166395
51
21.3679384
0
ARC
8
DEFAULT_255_2_778
10
8.86022
20
2.6139417
40
0.5333318
50
23.4679363
51
70.4136922
0
ARC
8
DEFAULT_255_2_778
10
8.7268464
20
2.315498
40
0.8595988
50
68.7064205
51
90.3219157
0
ARC
8
DEFAULT_255_2_778
10
8.712931
20
2.3475285
40
0.8276045
50
89.370973
51
117.1970588
0
ARC
8
DEFAULT_255_2_778
10
8.5513861
20
2.6424637
40
0.4915232
50
116.1614541
51
169.1626507
0
ARC
8
DEFAULT_255_2_778
10
8.5890888
20
2.6429078
40
0.5285235
50
169.9784472
51
180.1327573
0
LINE
8
DEFAULT_255_2_778
10
8.0605667
20
10.4510831
11
8.0605667
21
5.0313831
0
LINE
8
DEFAULT_255_2_778
10
13.3522667
20
5.0313831
11
13.3522667
21
10.4510831
0
LINE
8
DEFAULT_255_2_778
10
13.3522667
20
-2.7781169
11
13.3522667
21
2.6416831
0
LINE
8
DEFAULT_255_2_778
10
8.0605667
20
2.6416831
11
8.0605667
21
-2.7781169
0
ENDSEC
0
EOF