0
SECTION
2
HEADER
9
$MEASUREMENT
70
1
0
ENDSEC
0
SECTION
2
TABLES
0
TABLE
2
LTYPE
0
LTYPE
72
65
70
64
2
CONTINUOUS
3
______
73
0
40
0
0
ENDTAB
0
TABLE
2
LAYER
0
LAYER
2
DEFAULT_255_1_388
70
0
62
255
6
CONTINUOUS
0
LAYER
2
DEFAULT_255_2_778
70
0
62
255
6
CONTINUOUS
0
ENDTAB
0
ENDSEC
0
SECTION
2
ENTITIES
0
LINE
8
DEFAULT_255_1_388
10
4.2915852
20
6.7940985
11
5.6135
21
6.7940985
0
LINE
8
DEFAULT_255_1_388
10
5.6135
20
6.7940985
11
5.6135
21
6.6260355
0
LINE
8
DEFAULT_255_1_388
10
5.6135
20
6.6260355
11
4.499405
21
6.6260355
0
LINE
8
DEFAULT_255_1_388
10
4.499405
20
6.6260355
11
4.6231934
21
6.289006
0
LINE
8
DEFAULT_255_1_388
10
4.6231934
20
6.289006
11
4.4713945
21
6.289006
0
LINE
8
DEFAULT_255_1_388
10
4.4713945
20
6.289006
11
4.2915852
21
6.7678951
0
LINE
8
DEFAULT_255_1_388
10
4.2915852
20
6.7678951
11
4.2915852
21
6.7940985
0
LINE
8
DEFAULT_255_1_388
10
4.2979102
20
7.5015895
11
5.4716404
21
7.5015895
0
LINE
8
DEFAULT_255_1_388
10
5.4716404
20
7.5015895
11
5.4716404
21
8.1250489
0
LINE
8
DEFAULT_255_1_388
10
5.4716404
20
8.1250489
11
5.6135
21
8.1250489
0
LINE
8
DEFAULT_255_1_388
10
5.6135
20
8.1250489
11
5.6135
21
7.3272015
0
LINE
8
DEFAULT_255_1_388
10
5.6135
20
7.3272015
11
4.2979102
21
7.3272015
0
LINE
8
DEFAULT_255_1_388
10
4.2979102
20
7.3272015
11
4.2979102
21
7.5015895
0
LINE
8
DEFAULT_255_1_388
10
9.5832852
20
6.4999985
11
10.9052
21
6.4999985
0
LINE
8
DEFAULT_255_1_388
10
10.9052
20
6.4999985
11
10.9052
21
6.3319355
0
LINE
8
DEFAULT_255_1_388
10
10.9052
20
6.3319355
11
9.791105
21
6.3319355
0
LINE
8
DEFAULT_255_1_388
10
9.791105
20
6.3319355
11
9.9148934
21
5.994906
0
LINE
8
DEFAULT_255_1_388
10
9.9148934
20
5.994906
11
9.7630945
21
5.994906
0
LINE
8
DEFAULT_255_1_388
10
9.7630945
20
5.994906
11
9.5832852
21
6.4737951
0
LINE
8
DEFAULT_255_1_388
10
9.5832852
20
6.4737951
11
9.5832852
21
6.4999985
0
LINE
8
DEFAULT_255_1_388
10
9.5896102
20
8.0441901
11
10.9052
21
8.0441901
0
LINE
8
DEFAULT_255_1_388
10
10.9052
20
8.0441901
11
10.9052
21
7.8698022
0
LINE
8
DEFAULT_255_1_388
10
10.9052
20
7.8698022
11
9.8914007
21
7.2074895
0
LINE
8
DEFAULT_255_1_388
10
9.8914007
20
7.2074895
11
10.9052
21
7.2074895
0
LINE
8
DEFAULT_255_1_388
10
10.9052
20
7.2074895
11
10.9052
21
7.0331015
0
LINE
8
DEFAULT_255_1_388
10
10.9052
20
7.0331015
11
9.5896102
21
7.0331015
0
LINE
8
DEFAULT_255_1_388
10
9.5896102
20
7.0331015
11
9.5896102
21
7.2074895
0
LINE
8
DEFAULT_255_1_388
10
9.5896102
20
7.2074895
11
10.6079273
21
7.8716093
0
LINE
8
DEFAULT_255_1_388
10
10.6079273
20
7.8716093
11
9.5896102
21
7.8716093
0
LINE
8
DEFAULT_255_1_388
10
9.5896102
20
7.8716093
11
9.5896102
21
8.0441901
0
LINE
8
DEFAULT_255_1_388
10
5.4771618
20
-0.8481682
11
5.6136
21
-0.8481682
0
LINE
8
DEFAULT_255_1_388
10
5.6136
20
-0.8481682
11
5.6136
21
-1.7101687
0
LINE
8
DEFAULT_255_1_388
10
5.6136
20
-1.7101687
11
5.4934259
21
-1.7101687
0
LINE
8
DEFAULT_255_1_388
10
5.4934259
20
-1.7101687
11
4.9874298
21
-1.2547722
0
LINE
8
DEFAULT_255_1_388
10
4.6856393
20
-1.5683091
11
4.6856393
21
-1.7354685
0
LINE
8
DEFAULT_255_1_388
10
5.094954
20
-1.1562837
11
5.4771618
21
-1.5086738
0
LINE
8
DEFAULT_255_1_388
10
5.4771618
20
-1.5086738
11
5.4771618
21
-0.8481682
0
ARC
8
DEFAULT_255_1_388
10
3.6454017
20
-2.7723663
40
2.0258655
50
48.5132526
51
50.7829045
0
ARC
8
DEFAULT_255_1_388
10
4.1295071
20
-2.1775706
40
1.2589638
50
50.7372878
51
53.9739031
0
ARC
8
DEFAULT_255_1_388
10
4.4489446
20
-1.7366774
40
0.7145141
50
53.8962701
51
58.64194
0
ARC
8
DEFAULT_255_1_388
10
4.5909455
20
-1.5064516
40
0.4440242
50
58.8294576
51
61.7891185
0
ARC
8
DEFAULT_255_1_388
10
4.6488626
20
-1.3942196
40
0.3177517
50
61.4254512
51
82.9365785
0
ARC
8
DEFAULT_255_1_388
10
4.652295
20
-1.3789196
40
0.3021496
50
83.2257659
51
90.0166158
0
ARC
8
DEFAULT_255_1_388
10
4.6497106
20
-1.3552436
40
0.2784847
50
89.486299
51
105.9343185
0
ARC
8
DEFAULT_255_1_388
10
4.6343731
20
-1.2982169
40
0.2194403
50
106.1712913
51
133.5286088
0
ARC
8
DEFAULT_255_1_388
10
4.6256809
20
-1.2895224
40
0.2071504
50
133.4417391
51
173.1661095
0
ARC
8
DEFAULT_255_1_388
10
4.7085684
20
-1.3046063
40
0.2912888
50
172.160179
51
180.1505708
0
ARC
8
DEFAULT_255_1_388
10
4.7689721
20
-1.3081582
40
0.3517025
50
179.5460741
51
192.5418361
0
ARC
8
DEFAULT_255_1_388
10
4.6530067
20
-1.3354862
40
0.2325748
50
192.1738499
51
219.206123
0
ARC
8
DEFAULT_255_1_388
10
4.6390336
20
-1.3443408
40
0.2161591
50
219.72865
51
225.753947
0
ARC
8
DEFAULT_255_1_388
10
4.6499272
20
-1.3306926
40
0.2335433
50
226.1757367
51
256.3673339
0
ARC
8
DEFAULT_255_1_388
10
4.6802852
20
-1.2174238
40
0.3507873
50
255.9090694
51
268.8684636
0
ARC
8
DEFAULT_255_1_388
10
4.6855737
20
-1.1198466
40
0.4484624
50
268.4391136
51
270.0083808
0
ARC
8
DEFAULT_255_1_388
10
4.6811803
20
-1.2777765
40
0.4577138
50
253.2878482
51
270.5581842
0
ARC
8
DEFAULT_255_1_388
10
4.6563607
20
-1.3679724
40
0.3641968
50
223.4540601
51
252.947111
0
ARC
8
DEFAULT_255_1_388
10
4.6777211
20
-1.3478842
40
0.3935189
50
190.7869829
51
223.4382499
0
ARC
8
DEFAULT_255_1_388
10
4.8519601
20
-1.3087597
40
0.5720313
50
179.660664
51
191.3702276
0
ARC
8
DEFAULT_255_1_388
10
4.8450737
20
-1.3012988
40
0.5651495
50
168.2172678
51
180.412935
0
ARC
8
DEFAULT_255_1_388
10
4.6623489
20
-1.2613522
40
0.378122
50
145.9269121
51
168.4888449
0
ARC
8
DEFAULT_255_1_388
10
4.6242813
20
-1.2392807
40
0.3342379
50
137.929771
51
145.4049217
0
ARC
8
DEFAULT_255_1_388
10
4.6126382
20
-1.2278277
40
0.3179217
50
94.334829
51
138.0560205
0
ARC
8
DEFAULT_255_1_388
10
4.6317513
20
-1.3510475
40
0.442341
50
89.9251713
51
95.5971671
0
ARC
8
DEFAULT_255_1_388
10
4.6254272
20
-1.302832
40
0.3941854
50
67.8914027
51
88.9967534
0
ARC
8
DEFAULT_255_1_388
10
4.5076705
20
-1.608075
40
0.7213271
50
56.9132501
51
68.3508308
0
ARC
8
DEFAULT_255_1_388
10
4.2202895
20
-2.0564638
40
1.2538973
50
49.6471833
51
57.0959558
0
ARC
8
DEFAULT_255_1_388
10
3.864495
20
-2.487798
40
1.8129975
50
47.2588228
51
49.9045804
0
ARC
8
DEFAULT_255_1_388
10
5.5248858
20
-0.5298862
40
0.1204062
50
253.5412609
51
270.5084512
0
ARC
8
DEFAULT_255_1_388
10
5.519054
20
-0.5514963
40
0.0980307
50
228.1652
51
253.2315563
0
ARC
8
DEFAULT_255_1_388
10
5.5083544
20
-0.5641222
40
0.0814881
50
195.6860499
51
227.8492655
0
ARC
8
DEFAULT_255_1_388
10
5.5515891
20
-0.5508021
40
0.126719
50
182.6078949
51
196.199173
0
ARC
8
DEFAULT_255_1_388
10
5.5961793
20
-0.5473831
40
0.1714243
50
179.9659531
51
183.0713334
0
ARC
8
DEFAULT_255_1_388
10
5.5711516
20
-0.5461795
40
0.1464007
50
168.4379126
51
180.4311892
0
ARC
8
DEFAULT_255_1_388
10
5.5204983
20
-0.5353148
40
0.094599
50
146.8961942
51
168.7357785
0
ARC
8
DEFAULT_255_1_388
10
5.5080925
20
-0.5282037
40
0.0803272
50
132.6503148
51
146.3122241
0
ARC
8
DEFAULT_255_1_388
10
5.5213339
20
-0.5426136
40
0.099897
50
93.8141057
51
132.636595
0
ARC
8
DEFAULT_255_1_388
10
5.5258384
20
-0.5748814
40
0.1324137
50
89.9498843
51
94.8301897
0
ARC
8
DEFAULT_255_1_388
10
5.5270278
20
-0.5493676
40
0.1069053
50
70.9378148
51
90.5753733
0
ARC
8
DEFAULT_255_1_388
10
5.5304431
20
-0.5367094
40
0.0938301
50
46.0798885
51
70.3845117
0
ARC
8
DEFAULT_255_1_388
10
5.536448
20
-0.5301783
40
0.0849605
50
15.8512844
51
45.941661
0
ARC
8
DEFAULT_255_1_388
10
5.493738
20
-0.5433903
40
0.1296594
50
3.1293204
51
16.3125006
0
ARC
8
DEFAULT_255_1_388
10
5.4485414
20
-0.5471393
40
0.1749979
50
359.9535313
51
3.5471598
0
ARC
8
DEFAULT_255_1_388
10
5.4731167
20
-0.5483787
40
0.1504266
50
349.0487117
51
0.4180248
0
ARC
8
DEFAULT_255_1_388
10
5.5268217
20
-0.5592175
40
0.0956414
50
329.7583641
51
349.3115656
0
ARC
8
DEFAULT_255_1_388
10
5.5437952
20
-0.5683242
40
0.0763945
50
312.6243303
51
329.2473835
0
ARC
8
DEFAULT_255_1_388
10
5.5299428
20
-0.5532071
40
0.0968985
50
272.9231258
51
312.598101
0
ARC
8
DEFAULT_255_1_388
10
5.5260304
20
-0.5228871
40
0.1274004
50
269.9657458
51
273.9850364
0
LINE
8
DEFAULT_255_1_388
10
4.2916852
20
0.3653188
11
5.6136
21
0.3653188
0
LINE
8
DEFAULT_255_1_388
10
5.6136
20
0.3653188
11
5.6136
21
0.1972559
0
LINE
8
DEFAULT_255_1_388
10
5.6136
20
0.1972559
11
4.499505
21
0.1972559
0
LINE
8
DEFAULT_255_1_388
10
4.499505
20
0.1972559
11
4.6232934
21
-0.1397737
0
LINE
8
DEFAULT_255_1_388
10
4.6232934
20
-0.1397737
11
4.4714945
21
-0.1397737
0
LINE
8
DEFAULT_255_1_388
10
4.4714945
20
-0.1397737
11
4.2916852
21
0.3391155
0
LINE
8
DEFAULT_255_1_388
10
4.2916852
20
0.3391155
11
4.2916852
21
0.3653188
0
LINE
8
DEFAULT_255_1_388
10
4.2980102
20
1.0728098
11
5.4717404
21
1.0728098
0
LINE
8
DEFAULT_255_1_388
10
5.4717404
20
1.0728098
11
5.4717404
21
1.6962693
0
LINE
8
DEFAULT_255_1_388
10
5.4717404
20
1.6962693
11
5.6136
21
1.6962693
0
LINE
8
DEFAULT_255_1_388
10
5.6136
20
1.6962693
11
5.6136
21
0.8984219
0
LINE
8
DEFAULT_255_1_388
10
5.6136
20
0.8984219
11
4.2980102
21
0.8984219
0
LINE
8
DEFAULT_255_1_388
10
4.2980102
20
0.8984219
11
4.2980102
21
1.0728098
0
LINE
8
DEFAULT_255_1_388
10
8.1229618
20
-0.8481682
11
8.2594
21
-0.8481682
0
LINE
8
DEFAULT_255_1_388
10
8.2594
20
-0.8481682
11
8.2594
21
-1.7101687
0
LINE
8
DEFAULT_255_1_388
10
8.2594
20
-1.7101687
11
8.1392259
21
-1.7101687
0
LINE
8
DEFAULT_255_1_388
10
8.1392259
20
-1.7101687
11
7.6332298
21
-1.2547722
0
LINE
8
DEFAULT_255_1_388
10
7.3314393
20
-1.5683091
11
7.3314393
21
-1.7354685
0
LINE
8
DEFAULT_255_1_388
10
7.740754
20
-1.1562837
11
8.1229618
21
-1.5086738
0
LINE
8
DEFAULT_255_1_388
10
8.1229618
20
-1.5086738
11
8.1229618
21
-0.8481682
0
ARC
8
DEFAULT_255_1_388
10
6.2912017
20
-2.7723663
40
2.0258655
50
48.5132526
51
50.7829045
0
ARC
8
DEFAULT_255_1_388
10
6.7753071
20
-2.1775706
40
1.2589638
50
50.7372878
51
53.9739031
0
ARC
8
DEFAULT_255_1_388
10
7.0947446
20
-1.7366774
40
0.7145141
50
53.8962701
51
58.64194
0
ARC
8
DEFAULT_255_1_388
10
7.2367455
20
-1.5064516
40
0.4440242
50
58.8294576
51
61.7891185
0
ARC
8
DEFAULT_255_1_388
10
7.2946626
20
-1.3942196
40
0.3177517
50
61.4254512
51
82.9365785
0
ARC
8
DEFAULT_255_1_388
10
7.298095
20
-1.3789196
40
0.3021496
50
83.2257659
51
90.0166158
0
ARC
8
DEFAULT_255_1_388
10
7.2955106
20
-1.3552436
40
0.2784847
50
89.486299
51
105.9343185
0
ARC
8
DEFAULT_255_1_388
10
7.2801731
20
-1.2982169
40
0.2194403
50
106.1712913
51
133.5286088
0
ARC
8
DEFAULT_255_1_388
10
7.2714809
20
-1.2895224
40
0.2071504
50
133.4417391
51
173.1661095
0
ARC
8
DEFAULT_255_1_388
10
7.3543684
20
-1.3046063
40
0.2912888
50
172.160179
51
180.1505708
0
ARC
8
DEFAULT_255_1_388
10
7.4147721
20
-1.3081582
40
0.3517025
50
179.5460741
51
192.5418361
0
ARC
8
DEFAULT_255_1_388
10
7.2988067
20
-1.3354862
40
0.2325748
50
192.1738499
51
219.206123
0
ARC
8
DEFAULT_255_1_388
10
7.2848336
20
-1.3443408
40
0.2161591
50
219.72865
51
225.753947
0
ARC
8
DEFAULT_255_1_388
10
7.2957272
20
-1.3306926
40
0.2335433
50
226.1757367
51
256.3673339
0
ARC
8
DEFAULT_255_1_388
10
7.3260852
20
-1.2174238
40
0.3507873
50
255.9090694
51
268.8684636
0
ARC
8
DEFAULT_255_1_388
10
7.3313737
20
-1.1198466
40
0.4484624
50
268.4391136
51
270.0083808
0
ARC
8
DEFAULT_255_1_388
10
7.3269803
20
-1.2777765
40
0.4577138
50
253.2878482
51
270.5581842
0
ARC
8
DEFAULT_255_1_388
10
7.3021607
20
-1.3679724
40
0.3641968
50
223.4540601
51
252.947111
0
ARC
8
DEFAULT_255_1_388
10
7.3235211
20
-1.3478842
40
0.3935189
50
190.7869829
51
223.4382499
0
ARC
8
DEFAULT_255_1_388
10
7.4977601
20
-1.3087597
40
0.5720313
50
179.660664
51
191.3702276
0
ARC
8
DEFAULT_255_1_388
10
7.4908737
20
-1.3012988
40
0.5651495
50
168.2172678
51
180.412935
0
ARC
8
DEFAULT_255_1_388
10
7.3081489
20
-1.2613522
40
0.378122
50
145.9269121
51
168.4888449
0
ARC
8
DEFAULT_255_1_388
10
7.2700813
20
-1.2392807
40
0.3342379
50
137.929771
51
145.4049217
0
ARC
8
DEFAULT_255_1_388
10
7.2584382
20
-1.2278277
40
0.3179217
50
94.334829
51
138.0560205
0
ARC
8
DEFAULT_255_1_388
10
7.2775513
20
-1.3510475
40
0.442341
50
89.9251713
51
95.5971671
0
ARC
8
DEFAULT_255_1_388
10
7.2712272
20
-1.302832
40
0.3941854
50
67.8914027
51
88.9967534
0
ARC
8
DEFAULT_255_1_388
10
7.1534705
20
-1.608075
40
0.7213271
50
56.9132501
51
68.3508308
0
ARC
8
DEFAULT_255_1_388
10
6.8660895
20
-2.0564638
40
1.2538973
50
49.6471833
51
57.0959558
0
ARC
8
DEFAULT_255_1_388
10
6.510295
20
-2.487798
40
1.8129975
50
47.2588228
51
49.9045804
0
ARC
8
DEFAULT_255_1_388
10
8.1706858
20
-0.5298862
40
0.1204062
50
253.5412609
51
270.5084512
0
ARC
8
DEFAULT_255_1_388
10
8.164854
20
-0.5514963
40
0.0980307
50
228.1652
51
253.2315563
0
ARC
8
DEFAULT_255_1_388
10
8.1541544
20
-0.5641222
40
0.0814881
50
195.6860499
51
227.8492655
0
ARC
8
DEFAULT_255_1_388
10
8.1973891
20
-0.5508021
40
0.126719
50
182.6078949
51
196.199173
0
ARC
8
DEFAULT_255_1_388
10
8.2419793
20
-0.5473831
40
0.1714243
50
179.9659531
51
183.0713334
0
ARC
8
DEFAULT_255_1_388
10
8.2169516
20
-0.5461795
40
0.1464007
50
168.4379126
51
180.4311892
0
ARC
8
DEFAULT_255_1_388
10
8.1662983
20
-0.5353148
40
0.094599
50
146.8961942
51
168.7357785
0
ARC
8
DEFAULT_255_1_388
10
8.1538925
20
-0.5282037
40
0.0803272
50
132.6503148
51
146.3122241
0
ARC
8
DEFAULT_255_1_388
10
8.1671339
20
-0.5426136
40
0.099897
50
93.8141057
51
132.636595
0
ARC
8
DEFAULT_255_1_388
10
8.1716384
20
-0.5748814
40
0.1324137
50
89.9498843
51
94.8301897
0
ARC
8
DEFAULT_255_1_388
10
8.1728278
20
-0.5493676
40
0.1069053
50
70.9378148
51
90.5753733
0
ARC
8
DEFAULT_255_1_388
10
8.1762431
20
-0.5367094
40
0.0938301
50
46.0798885
51
70.3845117
0
ARC
8
DEFAULT_255_1_388
10
8.182248
20
-0.5301783
40
0.0849605
50
15.8512844
51
45.941661
0
ARC
8
DEFAULT_255_1_388
10
8.139538
20
-0.5433903
40
0.1296594
50
3.1293204
51
16.3125006
0
ARC
8
DEFAULT_255_1_388
10
8.0943414
20
-0.5471393
40
0.1749979
50
359.9535313
51
3.5471598
0
ARC
8
DEFAULT_255_1_388
10
8.1189167
20
-0.5483787
40
0.1504266
50
349.0487117
51
0.4180248
0
ARC
8
DEFAULT_255_1_388
10
8.1726217
20
-0.5592175
40
0.0956414
50
329.7583641
51
349.3115656
0
ARC
8
DEFAULT_255_1_388
10
8.1895952
20
-0.5683242
40
0.0763945
50
312.6243303
51
329.2473835
0
ARC
8
DEFAULT_255_1_388
10
8.1757428
20
-0.5532071
40
0.0968985
50
272.9231258
51
312.598101
0
ARC
8
DEFAULT_255_1_388
10
8.1718304
20
-0.5228871
40
0.1274004
50
269.9657458
51
273.9850364
0
LINE
8
DEFAULT_255_1_388
10
8.1229618
20
0.6779521
11
8.2594
21
0.6779521
0
LINE
8
DEFAULT_255_1_388
10
8.2594
20
0.6779521
11
8.2594
21
-0.1840483
0
LINE
8
DEFAULT_255_1_388
10
8.2594
20
-0.1840483
11
8.1392259
21
-0.1840483
0
LINE
8
DEFAULT_255_1_388
10
8.1392259
20
-0.1840483
11
7.6332298
21
0.2713481
0
LINE
8
DEFAULT_255_1_388
10
7.3314393
20
-0.0421887
11
7.3314393
21
-0.2093481
0
LINE
8
DEFAULT_255_1_388
10
7.740754
20
0.3698367
11
8.1229618
21
0.0174465
0
LINE
8
DEFAULT_255_1_388
10
8.1229618
20
0.0174465
11
8.1229618
21
0.6779521
0
ARC
8
DEFAULT_255_1_388
10
6.2912017
20
-1.2462459
40
2.0258655
50
48.5132526
51
50.7829045
0
ARC
8
DEFAULT_255_1_388
10
6.7753071
20
-0.6514502
40
1.2589638
50
50.7372878
51
53.9739031
0
ARC
8
DEFAULT_255_1_388
10
7.0947446
20
-0.210557
40
0.7145141
50
53.8962701
51
58.64194
0
ARC
8
DEFAULT_255_1_388
10
7.2367455
20
0.0196687
40
0.4440242
50
58.8294576
51
61.7891185
0
ARC
8
DEFAULT_255_1_388
10
7.2946626
20
0.1319007
40
0.3177517
50
61.4254512
51
82.9365785
0
ARC
8
DEFAULT_255_1_388
10
7.298095
20
0.1472007
40
0.3021496
50
83.2257659
51
90.0166158
0
ARC
8
DEFAULT_255_1_388
10
7.2955106
20
0.1708768
40
0.2784847
50
89.486299
51
105.9343185
0
ARC
8
DEFAULT_255_1_388
10
7.2801731
20
0.2279035
40
0.2194403
50
106.1712913
51
133.5286088
0
ARC
8
DEFAULT_255_1_388
10
7.2714809
20
0.2365979
40
0.2071504
50
133.4417391
51
173.1661095
0
ARC
8
DEFAULT_255_1_388
10
7.3543684
20
0.221514
40
0.2912888
50
172.160179
51
180.1505708
0
ARC
8
DEFAULT_255_1_388
10
7.4147721
20
0.2179622
40
0.3517025
50
179.5460741
51
192.5418361
0
ARC
8
DEFAULT_255_1_388
10
7.2988067
20
0.1906342
40
0.2325748
50
192.1738499
51
219.206123
0
ARC
8
DEFAULT_255_1_388
10
7.2848336
20
0.1817795
40
0.2161591
50
219.72865
51
225.753947
0
ARC
8
DEFAULT_255_1_388
10
7.2957272
20
0.1954277
40
0.2335433
50
226.1757367
51
256.3673339
0
ARC
8
DEFAULT_255_1_388
10
7.3260852
20
0.3086966
40
0.3507873
50
255.9090694
51
268.8684636
0
ARC
8
DEFAULT_255_1_388
10
7.3313737
20
0.4062737
40
0.4484624
50
268.4391136
51
270.0083808
0
ARC
8
DEFAULT_255_1_388
10
7.3269803
20
0.2483439
40
0.4577138
50
253.2878482
51
270.5581842
0
ARC
8
DEFAULT_255_1_388
10
7.3021607
20
0.158148
40
0.3641968
50
223.4540601
51
252.947111
0
ARC
8
DEFAULT_255_1_388
10
7.3235211
20
0.1782362
40
0.3935189
50
190.7869829
51
223.4382499
0
ARC
8
DEFAULT_255_1_388
10
7.4977601
20
0.2173607
40
0.5720313
50
179.660664
51
191.3702276
0
ARC
8
DEFAULT_255_1_388
10
7.4908737
20
0.2248216
40
0.5651495
50
168.2172678
51
180.412935
0
ARC
8
DEFAULT_255_1_388
10
7.3081489
20
0.2647681
40
0.378122
50
145.9269121
51
168.4888449
0
ARC
8
DEFAULT_255_1_388
10
7.2700813
20
0.2868397
40
0.3342379
50
137.929771
51
145.4049217
0
ARC
8
DEFAULT_255_1_388
10
7.2584382
20
0.2982927
40
0.3179217
50
94.334829
51
138.0560205
0
ARC
8
DEFAULT_255_1_388
10
7.2775513
20
0.1750729
40
0.442341
50
89.9251713
51
95.5971671
0
ARC
8
DEFAULT_255_1_388
10
7.2712272
20
0.2232883
40
0.3941854
50
67.8914027
51
88.9967534
0
ARC
8
DEFAULT_255_1_388
10
7.1534705
20
-0.0819547
40
0.7213271
50
56.9132501
51
68.3508308
0
ARC
8
DEFAULT_255_1_388
10
6.8660895
20
-0.5303435
40
1.2538973
50
49.6471833
51
57.0959558
0
ARC
8
DEFAULT_255_1_388
10
6.510295
20
-0.9616777
40
1.8129975
50
47.2588228
51
49.9045804
0
LINE
8
DEFAULT_255_1_388
10
6.9438102
20
1.0728098
11
8.1175404
21
1.0728098
0
LINE
8
DEFAULT_255_1_388
10
8.1175404
20
1.0728098
11
8.1175404
21
1.6962693
0
LINE
8
DEFAULT_255_1_388
10
8.1175404
20
1.6962693
11
8.2594
21
1.6962693
0
LINE
8
DEFAULT_255_1_388
10
8.2594
20
1.6962693
11
8.2594
21
0.8984219
0
LINE
8
DEFAULT_255_1_388
10
8.2594
20
0.8984219
11
6.9438102
21
0.8984219
0
LINE
8
DEFAULT_255_1_388
10
6.9438102
20
0.8984219
11
6.9438102
21
1.0728098
0
LINE
8
DEFAULT_255_1_388
10
10.7687618
20
-0.8785682
11
10.9052
21
-0.8785682
0
LINE
8
DEFAULT_255_1_388
10
10.9052
20
-0.8785682
11
10.9052
21
-1.7405687
0
LINE
8
DEFAULT_255_1_388
10
10.9052
20
-1.7405687
11
10.7850259
21
-1.7405687
0
LINE
8
DEFAULT_255_1_388
10
10.7850259
20
-1.7405687
11
10.2790298
21
-1.2851722
0
LINE
8
DEFAULT_255_1_388
10
9.9772393
20
-1.5987091
11
9.9772393
21
-1.7658685
0
LINE
8
DEFAULT_255_1_388
10
10.386554
20
-1.1866837
11
10.7687618
21
-1.5390738
0
LINE
8
DEFAULT_255_1_388
10
10.7687618
20
-1.5390738
11
10.7687618
21
-0.8785682
0
ARC
8
DEFAULT_255_1_388
10
8.9370017
20
-2.8027663
40
2.0258655
50
48.5132526
51
50.7829045
0
ARC
8
DEFAULT_255_1_388
10
9.4211071
20
-2.2079706
40
1.2589638
50
50.7372878
51
53.9739031
0
ARC
8
DEFAULT_255_1_388
10
9.7405446
20
-1.7670774
40
0.7145141
50
53.8962701
51
58.64194
0
ARC
8
DEFAULT_255_1_388
10
9.8825455
20
-1.5368516
40
0.4440242
50
58.8294576
51
61.7891185
0
ARC
8
DEFAULT_255_1_388
10
9.9404626
20
-1.4246196
40
0.3177517
50
61.4254512
51
82.9365785
0
ARC
8
DEFAULT_255_1_388
10
9.943895
20
-1.4093196
40
0.3021496
50
83.2257659
51
90.0166158
0
ARC
8
DEFAULT_255_1_388
10
9.9413106
20
-1.3856436
40
0.2784847
50
89.486299
51
105.9343185
0
ARC
8
DEFAULT_255_1_388
10
9.9259731
20
-1.3286169
40
0.2194403
50
106.1712913
51
133.5286088
0
ARC
8
DEFAULT_255_1_388
10
9.9172809
20
-1.3199224
40
0.2071504
50
133.4417391
51
173.1661095
0
ARC
8
DEFAULT_255_1_388
10
10.0001684
20
-1.3350063
40
0.2912888
50
172.160179
51
180.1505708
0
ARC
8
DEFAULT_255_1_388
10
10.0605721
20
-1.3385582
40
0.3517025
50
179.5460741
51
192.5418361
0
ARC
8
DEFAULT_255_1_388
10
9.9446067
20
-1.3658862
40
0.2325748
50
192.1738499
51
219.206123
0
ARC
8
DEFAULT_255_1_388
10
9.9306336
20
-1.3747408
40
0.2161591
50
219.72865
51
225.753947
0
ARC
8
DEFAULT_255_1_388
10
9.9415272
20
-1.3610926
40
0.2335433
50
226.1757367
51
256.3673339
0
ARC
8
DEFAULT_255_1_388
10
9.9718852
20
-1.2478238
40
0.3507873
50
255.9090694
51
268.8684636
0
ARC
8
DEFAULT_255_1_388
10
9.9771737
20
-1.1502466
40
0.4484624
50
268.4391136
51
270.0083808
0
ARC
8
DEFAULT_255_1_388
10
9.9727803
20
-1.3081765
40
0.4577138
50
253.2878482
51
270.5581842
0
ARC
8
DEFAULT_255_1_388
10
9.9479607
20
-1.3983724
40
0.3641968
50
223.4540601
51
252.947111
0
ARC
8
DEFAULT_255_1_388
10
9.9693211
20
-1.3782842
40
0.3935189
50
190.7869829
51
223.4382499
0
ARC
8
DEFAULT_255_1_388
10
10.1435601
20
-1.3391597
40
0.5720313
50
179.660664
51
191.3702276
0
ARC
8
DEFAULT_255_1_388
10
10.1366737
20
-1.3316988
40
0.5651495
50
168.2172678
51
180.412935
0
ARC
8
DEFAULT_255_1_388
10
9.9539489
20
-1.2917522
40
0.378122
50
145.9269121
51
168.4888449
0
ARC
8
DEFAULT_255_1_388
10
9.9158813
20
-1.2696807
40
0.3342379
50
137.929771
51
145.4049217
0
ARC
8
DEFAULT_255_1_388
10
9.9042382
20
-1.2582277
40
0.3179217
50
94.334829
51
138.0560205
0
ARC
8
DEFAULT_255_1_388
10
9.9233513
20
-1.3814475
40
0.442341
50
89.9251713
51
95.5971671
0
ARC
8
DEFAULT_255_1_388
10
9.9170272
20
-1.333232
40
0.3941854
50
67.8914027
51
88.9967534
0
ARC
8
DEFAULT_255_1_388
10
9.7992705
20
-1.638475
40
0.7213271
50
56.9132501
51
68.3508308
0
ARC
8
DEFAULT_255_1_388
10
9.5118895
20
-2.0868638
40
1.2538973
50
49.6471833
51
57.0959558
0
ARC
8
DEFAULT_255_1_388
10
9.156095
20
-2.518198
40
1.8129975
50
47.2588228
51
49.9045804
0
LINE
8
DEFAULT_255_1_388
10
9.5896102
20
0.3529901
11
10.9052
21
0.3529901
0
LINE
8
DEFAULT_255_1_388
10
10.9052
20
0.3529901
11
10.9052
21
0.1786022
0
LINE
8
DEFAULT_255_1_388
10
10.9052
20
0.1786022
11
9.8914007
21
-0.4837105
0
LINE
8
DEFAULT_255_1_388
10
9.8914007
20
-0.4837105
11
10.9052
21
-0.4837105
0
LINE
8
DEFAULT_255_1_388
10
10.9052
20
-0.4837105
11
10.9052
21
-0.6580985
0
LINE
8
DEFAULT_255_1_388
10
10.9052
20
-0.6580985
11
9.5896102
21
-0.6580985
0
LINE
8
DEFAULT_255_1_388
10
9.5896102
20
-0.6580985
11
9.5896102
21
-0.4837105
0
LINE
8
DEFAULT_255_1_388
10
9.5896102
20
-0.4837105
11
10.6079273
21
0.1804093
0
LINE
8
DEFAULT_255_1_388
10
10.6079273
20
0.1804093
11
9.5896102
21
0.1804093
0
LINE
8
DEFAULT_255_1_388
10
9.5896102
20
0.1804093
11
9.5896102
21
0.3529901
0
ARC
8
DEFAULT_255_2_778
10
7.0549316
20
4.8949025
40
0.4954825
50
179.5165588
51
201.3602186
0
ARC
8
DEFAULT_255_2_778
10
7.0830415
20
4.9270091
40
0.533718
50
203.4715355
51
250.5351279
0
ARC
8
DEFAULT_255_2_778
10
7.2159076
20
5.2252218
40
0.8595518
50
248.8084847
51
270.3172368
0
ARC
8
DEFAULT_255_2_778
10
7.2297435
20
5.1926709
40
0.8270375
50
269.3711661
51
297.2065439
0
ARC
8
DEFAULT_255_2_778
10
7.3910624
20
4.8982309
40
0.4914979
50
296.1744084
51
349.1705963
0
ARC
8
DEFAULT_255_2_778
10
7.3531371
20
4.8978586
40
0.528731
50
349.9824115
51
0.1326968
0
ARC
8
DEFAULT_255_2_778
10
8.3773316
20
4.8949025
40
0.4954825
50
179.5165588
51
201.3602186
0
ARC
8
DEFAULT_255_2_778
10
8.4054415
20
4.9270091
40
0.533718
50
203.4715355
51
250.5351279
0
ARC
8
DEFAULT_255_2_778
10
8.5383076
20
5.2252218
40
0.8595518
50
248.8084847
51
270.3172368
0
ARC
8
DEFAULT_255_2_778
10
8.5521435
20
5.1926709
40
0.8270375
50
269.3711661
51
297.2065439
0
ARC
8
DEFAULT_255_2_778
10
8.7134624
20
4.8982309
40
0.4914979
50
296.1744084
51
349.1705963
0
ARC
8
DEFAULT_255_2_778
10
8.6755371
20
4.8978586
40
0.528731
50
349.9824115
51
0.1326968
0
ARC
8
DEFAULT_255_2_778
10
9.7000692
20
4.8948959
40
0.4958201
50
179.5161288
51
201.350718
0
ARC
8
DEFAULT_255_2_778
10
9.7280268
20
4.9269777
40
0.5339029
50
203.4654454
51
250.5933703
0
ARC
8
DEFAULT_255_2_778
10
9.8606285
20
5.2250712
40
0.8595135
50
248.8585759
51
270.3155521
0
LINE
8
DEFAULT_255_2_778
10
9.8653622
20
4.3655706
11
9.8654667
21
4.3655706
0
ARC
8
DEFAULT_255_2_778
10
9.8744385
20
5.192538
40
0.827016
50
269.3784215
51
297.21549
0
ARC
8
DEFAULT_255_2_778
10
10.0357398
20
4.8982557
40
0.4916233
50
296.1831415
51
349.1702311
0
ARC
8
DEFAULT_255_2_778
10
9.9979053
20
4.8978596
40
0.5287628
50
349.9827183
51
0.1325865
0
ARC
8
DEFAULT_255_2_778
10
11.0221634
20
4.8949024
40
0.4955143
50
179.5165751
51
201.3587584
0
ARC
8
DEFAULT_255_2_778
10
11.0502251
20
4.9269799
40
0.5336937
50
203.4692425
51
250.5330907
0
ARC
8
DEFAULT_255_2_778
10
11.1830586
20
5.2250996
40
0.8594296
50
248.8069586
51
270.3172139
0
ARC
8
DEFAULT_255_2_778
10
11.1968916
20
5.1925575
40
0.8269241
50
269.3712083
51
297.2084457
0
ARC
8
DEFAULT_255_2_778
10
11.3581649
20
4.8982168
40
0.4914933
50
296.1770318
51
349.1721626
0
ARC
8
DEFAULT_255_2_778
10
11.3202108
20
4.8978575
40
0.5287573
50
349.9830337
51
0.1328074
0
ARC
8
DEFAULT_255_2_778
10
10.9076271
20
2.3806097
40
0.9419462
50
359.785493
51
0.0030632
0
ARC
8
DEFAULT_255_2_778
10
10.9983371
20
2.384898
40
0.8512467
50
359.7147457
51
12.6571275
0
ARC
8
DEFAULT_255_2_778
10
11.1694266
20
2.4238237
40
0.6757859
50
12.6154731
51
30.8735035
0
ARC
8
DEFAULT_255_2_778
10
11.2231183
20
2.4529475
40
0.6147628
50
31.1115911
51
63.433442
0
ARC
8
DEFAULT_255_2_778
10
11.1927548
20
2.3908718
40
0.6838643
50
63.4841268
51
90.1697064
0
ARC
8
DEFAULT_255_2_778
10
11.1907292
20
2.3776047
40
0.6971284
50
90.0000003
51
90.1940911
0
ARC
8
DEFAULT_255_2_778
10
11.1820529
20
2.4188349
40
0.6559247
50
89.4483852
51
140.6749159
0
ARC
8
DEFAULT_255_2_778
10
11.1826101
20
2.4321838
40
0.6479843
50
141.61924
51
162.2902879
0
ARC
8
DEFAULT_255_2_778
10
11.3199271
20
2.3881193
40
0.792198
50
162.2754483
51
176.4574185
0
ARC
8
DEFAULT_255_2_778
10
11.4672989
20
2.3745732
40
0.9401357
50
176.1884048
51
179.84703
0
ARC
8
DEFAULT_255_2_778
10
9.5558413
20
2.3801369
40
0.9713303
50
359.8198711
51
359.9999043
0
ARC
8
DEFAULT_255_2_778
10
9.6752742
20
2.3843773
40
0.8519078
50
359.7146942
51
12.6568071
0
ARC
8
DEFAULT_255_2_778
10
9.8464566
20
2.4233226
40
0.676352
50
12.6152102
51
30.8715986
0
ARC
8
DEFAULT_255_2_778
10
9.9002848
20
2.4525465
40
0.6151601
50
31.1078617
51
63.3112481
0
ARC
8
DEFAULT_255_2_778
10
9.8699863
20
2.3907923
40
0.6839437
50
63.3670402
51
90.1702279
0
ARC
8
DEFAULT_255_2_778
10
9.8678833
20
2.3698575
40
0.7048757
50
89.9942325
51
90.1557263
0
ARC
8
DEFAULT_255_2_778
10
9.8592513
20
2.4191766
40
0.6555881
50
89.4130197
51
140.6862256
0
ARC
8
DEFAULT_255_2_778
10
9.8597566
20
2.4326257
40
0.647547
50
141.6352816
51
162.317238
0
ARC
8
DEFAULT_255_2_778
10
9.99727
20
2.388567
40
0.791946
50
162.3021937
51
176.4883834
0
ARC
8
DEFAULT_255_2_778
10
10.1449626
20
2.3750764
40
0.940198
50
176.2190961
51
179.8777113
0
ARC
8
DEFAULT_255_2_778
10
8.1957009
20
2.380724
40
1.0087698
50
359.8386484
51
359.9999196
0
ARC
8
DEFAULT_255_2_778
10
8.3537317
20
2.3849599
40
0.8507497
50
359.7146236
51
12.6673005
0
ARC
8
DEFAULT_255_2_778
10
8.5244511
20
2.4238264
40
0.6756627
50
12.6262957
51
30.8932941
0
ARC
8
DEFAULT_255_2_778
10
8.5775854
20
2.4525951
40
0.6153012
50
31.1348623
51
63.5656414
0
ARC
8
DEFAULT_255_2_778
10
8.5471063
20
2.3901498
40
0.6847862
50
63.6080254
51
90.1664663
0
ARC
8
DEFAULT_255_2_778
10
8.5451167
20
2.4005299
40
0.6744032
50
90.0000001
51
90.1528565
0
ARC
8
DEFAULT_255_2_778
10
8.5363416
20
2.4193658
40
0.6556021
50
89.390336
51
140.6554446
0
ARC
8
DEFAULT_255_2_778
10
8.5361993
20
2.4334872
40
0.6466301
50
141.6151454
51
162.3551056
0
ARC
8
DEFAULT_255_2_778
10
8.6735209
20
2.3895695
40
0.7908034
50
162.3386542
51
176.5094893
0
ARC
8
DEFAULT_255_2_778
10
8.8206472
20
2.3761877
40
0.9384818
50
176.2408917
51
179.896488
0
ARC
8
DEFAULT_255_2_778
10
6.8635956
20
2.3800943
40
1.0185736
50
359.8756232
51
359.9999538
0
ARC
8
DEFAULT_255_2_778
10
7.0300914
20
2.3843352
40
0.8520884
50
359.7147759
51
12.662943
0
ARC
8
DEFAULT_255_2_778
10
7.2011287
20
2.4232631
40
0.6766778
50
12.6217035
51
30.8827272
0
ARC
8
DEFAULT_255_2_778
10
7.2546966
20
2.4523293
40
0.6157908
50
31.120021
51
63.317447
0
ARC
8
DEFAULT_255_2_778
10
7.2243673
20
2.3905526
40
0.6846084
50
63.3711081
51
90.1684794
0
ARC
8
DEFAULT_255_2_778
10
7.2220073
20
2.5944235
40
0.4807348
50
89.9586492
51
90.1239572
0
ARC
8
DEFAULT_255_2_778
10
7.2135774
20
2.4199849
40
0.6552135
50
89.3537753
51
140.6649854
0
ARC
8
DEFAULT_255_2_778
10
7.213586
20
2.43401
40
0.6464215
50
141.6270041
51
162.3816312
0
ARC
8
DEFAULT_255_2_778
10
7.3513017
20
2.3900302
40
0.7909891
50
162.3646993
51
176.540568
0
ARC
8
DEFAULT_255_2_778
10
7.4987091
20
2.3766927
40
0.9389431
50
176.2709541
51
179.9273567
0
LINE
8
DEFAULT_255_2_778
10
6.5594667
20
10.3187831
11
6.5594667
21
4.8990831
0
LINE
8
DEFAULT_255_2_778
10
11.8489667
20
4.8990831
11
11.8489667
21
10.3187831
0
LINE
8
DEFAULT_255_2_778
10
11.8511667
20
-2.9104169
11
11.8495667
21
2.3770831
0
LINE
8
DEFAULT_255_2_778
10
9.2047667
20
2.3770831
11
9.2060667
21
-2.9104169
0
LINE
8
DEFAULT_255_2_778
10
6.5597667
20
2.3778831
11
6.5613667
21
-2.9104169
0
ENDSEC
0
EOF