0
SECTION
2
HEADER
9
$MEASUREMENT
70
1
0
ENDSEC
0
SECTION
2
TABLES
0
TABLE
2
LTYPE
0
LTYPE
72
65
70
64
2
CONTINUOUS
3
______
73
0
40
0
0
ENDTAB
0
TABLE
2
LAYER
0
LAYER
2
DEFAULT_255_1_234
70
0
62
255
6
CONTINUOUS
0
LAYER
2
DEFAULT_255_2_778
70
0
62
255
6
CONTINUOUS
0
ENDTAB
0
ENDSEC
0
SECTION
2
ENTITIES
0
LINE
8
DEFAULT_255_1_234
10
4.3705567
20
6.8339137
11
5.5456
21
6.8339137
0
LINE
8
DEFAULT_255_1_234
10
5.5456
20
6.8339137
11
5.5456
21
6.6845234
0
LINE
8
DEFAULT_255_1_234
10
5.5456
20
6.6845234
11
4.5552867
21
6.6845234
0
LINE
8
DEFAULT_255_1_234
10
4.5552867
20
6.6845234
11
4.6653215
21
6.3849396
0
LINE
8
DEFAULT_255_1_234
10
4.6653215
20
6.3849396
11
4.5303883
21
6.3849396
0
LINE
8
DEFAULT_255_1_234
10
4.5303883
20
6.3849396
11
4.3705567
21
6.8106217
0
LINE
8
DEFAULT_255_1_234
10
4.3705567
20
6.8106217
11
4.3705567
21
6.8339137
0
LINE
8
DEFAULT_255_1_234
10
4.3761789
20
7.4627988
11
5.4195017
21
7.4627988
0
LINE
8
DEFAULT_255_1_234
10
5.4195017
20
7.4627988
11
5.4195017
21
8.0169888
0
LINE
8
DEFAULT_255_1_234
10
5.4195017
20
8.0169888
11
5.5456
21
8.0169888
0
LINE
8
DEFAULT_255_1_234
10
5.5456
20
8.0169888
11
5.5456
21
7.3077863
0
LINE
8
DEFAULT_255_1_234
10
5.5456
20
7.3077863
11
4.3761789
21
7.3077863
0
LINE
8
DEFAULT_255_1_234
10
4.3761789
20
7.3077863
11
4.3761789
21
7.4627988
0
LINE
8
DEFAULT_255_1_234
10
9.6622567
20
6.5589137
11
10.8373
21
6.5589137
0
LINE
8
DEFAULT_255_1_234
10
10.8373
20
6.5589137
11
10.8373
21
6.4095234
0
LINE
8
DEFAULT_255_1_234
10
10.8373
20
6.4095234
11
9.8469867
21
6.4095234
0
LINE
8
DEFAULT_255_1_234
10
9.8469867
20
6.4095234
11
9.9570215
21
6.1099396
0
LINE
8
DEFAULT_255_1_234
10
9.9570215
20
6.1099396
11
9.8220883
21
6.1099396
0
LINE
8
DEFAULT_255_1_234
10
9.8220883
20
6.1099396
11
9.6622567
21
6.5356217
0
LINE
8
DEFAULT_255_1_234
10
9.6622567
20
6.5356217
11
9.6622567
21
6.5589137
0
LINE
8
DEFAULT_255_1_234
10
9.6678789
20
7.9315378
11
10.8373
21
7.9315378
0
LINE
8
DEFAULT_255_1_234
10
10.8373
20
7.9315378
11
10.8373
21
7.7765252
0
LINE
8
DEFAULT_255_1_234
10
10.8373
20
7.7765252
11
9.936139
21
7.1877988
0
LINE
8
DEFAULT_255_1_234
10
9.936139
20
7.1877988
11
10.8373
21
7.1877988
0
LINE
8
DEFAULT_255_1_234
10
10.8373
20
7.1877988
11
10.8373
21
7.0327863
0
LINE
8
DEFAULT_255_1_234
10
10.8373
20
7.0327863
11
9.6678789
21
7.0327863
0
LINE
8
DEFAULT_255_1_234
10
9.6678789
20
7.0327863
11
9.6678789
21
7.1877988
0
LINE
8
DEFAULT_255_1_234
10
9.6678789
20
7.1877988
11
10.5730558
21
7.7781316
0
LINE
8
DEFAULT_255_1_234
10
10.5730558
20
7.7781316
11
9.6678789
21
7.7781316
0
LINE
8
DEFAULT_255_1_234
10
9.6678789
20
7.7781316
11
9.6678789
21
7.9315378
0
LINE
8
DEFAULT_255_1_234
10
5.4243208
20
-0.7582881
11
5.5456
21
-0.7582881
0
LINE
8
DEFAULT_255_1_234
10
5.5456
20
-0.7582881
11
5.5456
21
-1.524516
0
LINE
8
DEFAULT_255_1_234
10
5.5456
20
-1.524516
11
5.4387779
21
-1.524516
0
LINE
8
DEFAULT_255_1_234
10
5.4387779
20
-1.524516
11
4.9890005
21
-1.1197164
0
LINE
8
DEFAULT_255_1_234
10
4.7207405
20
-1.3984177
11
4.7207405
21
-1.5470048
0
LINE
8
DEFAULT_255_1_234
10
5.0845782
20
-1.0321704
11
5.4243208
21
-1.3454082
0
LINE
8
DEFAULT_255_1_234
10
5.4243208
20
-1.3454082
11
5.4243208
21
-0.7582881
0
ARC
8
DEFAULT_255_1_234
10
3.7960473
20
-2.468733
40
1.8008286
50
48.5132453
51
50.7828378
0
ARC
8
DEFAULT_255_1_234
10
4.2263574
20
-1.9400356
40
1.1191493
50
50.7372736
51
53.9737074
0
ARC
8
DEFAULT_255_1_234
10
4.5103639
20
-1.5480499
40
0.6350923
50
53.8961724
51
58.6421089
0
ARC
8
DEFAULT_255_1_234
10
4.6365969
20
-1.3433904
40
0.3946393
50
58.8299013
51
61.789948
0
ARC
8
DEFAULT_255_1_234
10
4.6880491
20
-1.2436726
40
0.2824501
50
61.4255242
51
82.9364833
0
ARC
8
DEFAULT_255_1_234
10
4.6911024
20
-1.2300225
40
0.2685315
50
83.2248685
51
90.0169286
0
ARC
8
DEFAULT_255_1_234
10
4.688805
20
-1.2090348
40
0.2475536
50
89.4866256
51
105.9339782
0
ARC
8
DEFAULT_255_1_234
10
4.6751714
20
-1.1583363
40
0.1950618
50
106.1714718
51
133.5284424
0
ARC
8
DEFAULT_255_1_234
10
4.6674427
20
-1.1506054
40
0.184134
50
133.4415429
51
173.1661404
0
ARC
8
DEFAULT_255_1_234
10
4.7411229
20
-1.1640136
40
0.258926
50
172.160215
51
180.1505798
0
ARC
8
DEFAULT_255_1_234
10
4.7948135
20
-1.1671709
40
0.3126255
50
179.5460705
51
192.5418777
0
ARC
8
DEFAULT_255_1_234
10
4.6917335
20
-1.1914623
40
0.2067346
50
192.1739365
51
219.2061916
0
ARC
8
DEFAULT_255_1_234
10
4.6792906
20
-1.1993551
40
0.1921118
50
219.7279328
51
225.7542026
0
ARC
8
DEFAULT_255_1_234
10
4.6889955
20
-1.1872023
40
0.2075944
50
226.175737
51
256.3674722
0
ARC
8
DEFAULT_255_1_234
10
4.7159818
20
-1.0865104
40
0.3118201
50
255.9092917
51
268.8683903
0
ARC
8
DEFAULT_255_1_234
10
4.7206821
20
-1.0000243
40
0.3983935
50
268.438168
51
270.0083905
0
ARC
8
DEFAULT_255_1_234
10
4.7167769
20
-1.1401641
40
0.4068601
50
253.2878735
51
270.5581814
0
ARC
8
DEFAULT_255_1_234
10
4.694716
20
-1.2203379
40
0.3237344
50
223.454115
51
252.9470031
0
ARC
8
DEFAULT_255_1_234
10
4.7137
20
-1.2024838
40
0.349795
50
190.7869394
51
223.4384016
0
ARC
8
DEFAULT_255_1_234
10
4.8685681
20
-1.1677066
40
0.5084616
50
179.6605301
51
191.3704185
0
ARC
8
DEFAULT_255_1_234
10
4.8624504
20
-1.1610727
40
0.502348
50
168.2171172
51
180.4130393
0
ARC
8
DEFAULT_255_1_234
10
4.7000363
20
-1.1255649
40
0.3361092
50
145.9268222
51
168.4888551
0
ARC
8
DEFAULT_255_1_234
10
4.6661676
20
-1.1059209
40
0.2970617
50
137.9292255
51
145.4054003
0
ARC
8
DEFAULT_255_1_234
10
4.6558498
20
-1.0957648
40
0.2825983
50
94.3347696
51
138.0560701
0
ARC
8
DEFAULT_255_1_234
10
4.6728399
20
-1.2053255
40
0.393225
50
89.925209
51
95.5967654
0
ARC
8
DEFAULT_255_1_234
10
4.6672184
20
-1.1624363
40
0.3503892
50
67.8914096
51
88.9967724
0
ARC
8
DEFAULT_255_1_234
10
4.5625294
20
-1.4337951
40
0.6412172
50
56.9135351
51
68.3505194
0
ARC
8
DEFAULT_255_1_234
10
4.3070716
20
-1.8323647
40
1.1146189
50
49.6472867
51
57.095818
0
ARC
8
DEFAULT_255_1_234
10
3.9909
20
-2.2156644
40
1.6114559
50
47.2586784
51
49.9046139
0
ARC
8
DEFAULT_255_1_234
10
5.4667435
20
-0.4753616
40
0.1070357
50
253.5417914
51
270.5078233
0
ARC
8
DEFAULT_255_1_234
10
5.4615579
20
-0.4945798
40
0.0871371
50
228.1647447
51
253.2316401
0
ARC
8
DEFAULT_255_1_234
10
5.4520466
20
-0.5058019
40
0.0724329
50
195.6856465
51
227.8494928
0
ARC
8
DEFAULT_255_1_234
10
5.4904871
20
-0.4939587
40
0.1126485
50
182.6088068
51
196.1990587
0
ARC
8
DEFAULT_255_1_234
10
5.5300226
20
-0.4909214
40
0.1522861
50
179.9660831
51
183.0733434
0
ARC
8
DEFAULT_255_1_234
10
5.507868
20
-0.4898519
40
0.130135
50
168.4379222
51
180.4311858
0
ARC
8
DEFAULT_255_1_234
10
5.4628412
20
-0.4801939
40
0.0840873
50
146.8960528
51
168.7359558
0
ARC
8
DEFAULT_255_1_234
10
5.4518123
20
-0.4738712
40
0.0713991
50
132.6499553
51
146.3125067
0
ARC
8
DEFAULT_255_1_234
10
5.4635854
20
-0.4866825
40
0.0887984
50
93.8142714
51
132.6365749
0
ARC
8
DEFAULT_255_1_234
10
5.4675847
20
-0.5153024
40
0.1176392
50
89.9476902
51
94.8305927
0
ARC
8
DEFAULT_255_1_234
10
5.4686459
20
-0.4926865
40
0.0950282
50
70.9376387
51
90.5750546
0
ARC
8
DEFAULT_255_1_234
10
5.4716808
20
-0.4814369
40
0.0834082
50
46.0805399
51
70.3842391
0
ARC
8
DEFAULT_255_1_234
10
5.4770191
20
-0.475629
40
0.0755219
50
15.8514865
51
45.9414755
0
ARC
8
DEFAULT_255_1_234
10
5.4390651
20
-0.4873719
40
0.115244
50
3.1292529
51
16.3135479
0
ARC
8
DEFAULT_255_1_234
10
5.3988951
20
-0.490702
40
0.1555398
50
359.9524064
51
3.5463789
0
ARC
8
DEFAULT_255_1_234
10
5.4207208
20
-0.4918068
40
0.1337177
50
349.0490813
51
0.4180302
0
ARC
8
DEFAULT_255_1_234
10
5.4684607
20
-0.5014405
40
0.0850178
50
329.7587791
51
349.311372
0
ARC
8
DEFAULT_255_1_234
10
5.4835518
20
-0.5095374
40
0.0679053
50
312.6244131
51
329.247817
0
ARC
8
DEFAULT_255_1_234
10
5.4712381
20
-0.4960999
40
0.0861314
50
272.9227855
51
312.598345
0
ARC
8
DEFAULT_255_1_234
10
5.4677627
20
-0.469238
40
0.113155
50
269.9642935
51
273.9868025
0
LINE
8
DEFAULT_255_1_234
10
4.3705567
20
0.3203743
11
5.5456
21
0.3203743
0
LINE
8
DEFAULT_255_1_234
10
5.5456
20
0.3203743
11
5.5456
21
0.170984
0
LINE
8
DEFAULT_255_1_234
10
5.5456
20
0.170984
11
4.5552867
21
0.170984
0
LINE
8
DEFAULT_255_1_234
10
4.5552867
20
0.170984
11
4.6653215
21
-0.1285999
0
LINE
8
DEFAULT_255_1_234
10
4.6653215
20
-0.1285999
11
4.5303883
21
-0.1285999
0
LINE
8
DEFAULT_255_1_234
10
4.5303883
20
-0.1285999
11
4.3705567
21
0.2970823
0
LINE
8
DEFAULT_255_1_234
10
4.3705567
20
0.2970823
11
4.3705567
21
0.3203743
0
LINE
8
DEFAULT_255_1_234
10
4.3761789
20
0.9492594
11
5.4195017
21
0.9492594
0
LINE
8
DEFAULT_255_1_234
10
5.4195017
20
0.9492594
11
5.4195017
21
1.5034494
0
LINE
8
DEFAULT_255_1_234
10
5.4195017
20
1.5034494
11
5.5456
21
1.5034494
0
LINE
8
DEFAULT_255_1_234
10
5.5456
20
1.5034494
11
5.5456
21
0.7942469
0
LINE
8
DEFAULT_255_1_234
10
5.5456
20
0.7942469
11
4.3761789
21
0.7942469
0
LINE
8
DEFAULT_255_1_234
10
4.3761789
20
0.7942469
11
4.3761789
21
0.9492594
0
LINE
8
DEFAULT_255_1_234
10
8.0702208
20
-0.7582881
11
8.1915
21
-0.7582881
0
LINE
8
DEFAULT_255_1_234
10
8.1915
20
-0.7582881
11
8.1915
21
-1.524516
0
LINE
8
DEFAULT_255_1_234
10
8.1915
20
-1.524516
11
8.0846779
21
-1.524516
0
LINE
8
DEFAULT_255_1_234
10
8.0846779
20
-1.524516
11
7.6349005
21
-1.1197164
0
LINE
8
DEFAULT_255_1_234
10
7.3666405
20
-1.3984177
11
7.3666405
21
-1.5470048
0
LINE
8
DEFAULT_255_1_234
10
7.7304782
20
-1.0321704
11
8.0702208
21
-1.3454082
0
LINE
8
DEFAULT_255_1_234
10
8.0702208
20
-1.3454082
11
8.0702208
21
-0.7582881
0
ARC
8
DEFAULT_255_1_234
10
6.4419473
20
-2.468733
40
1.8008286
50
48.5132453
51
50.7828378
0
ARC
8
DEFAULT_255_1_234
10
6.8722574
20
-1.9400356
40
1.1191493
50
50.7372736
51
53.9737074
0
ARC
8
DEFAULT_255_1_234
10
7.1562639
20
-1.5480499
40
0.6350923
50
53.8961724
51
58.6421089
0
ARC
8
DEFAULT_255_1_234
10
7.2824969
20
-1.3433904
40
0.3946393
50
58.8299013
51
61.789948
0
ARC
8
DEFAULT_255_1_234
10
7.3339491
20
-1.2436726
40
0.2824501
50
61.4255242
51
82.9364833
0
ARC
8
DEFAULT_255_1_234
10
7.3370024
20
-1.2300225
40
0.2685315
50
83.2248685
51
90.0169286
0
ARC
8
DEFAULT_255_1_234
10
7.334705
20
-1.2090348
40
0.2475536
50
89.4866256
51
105.9339782
0
ARC
8
DEFAULT_255_1_234
10
7.3210714
20
-1.1583363
40
0.1950618
50
106.1714718
51
133.5284424
0
ARC
8
DEFAULT_255_1_234
10
7.3133427
20
-1.1506054
40
0.184134
50
133.4415429
51
173.1661404
0
ARC
8
DEFAULT_255_1_234
10
7.3870229
20
-1.1640136
40
0.258926
50
172.160215
51
180.1505798
0
ARC
8
DEFAULT_255_1_234
10
7.4407135
20
-1.1671709
40
0.3126255
50
179.5460705
51
192.5418777
0
ARC
8
DEFAULT_255_1_234
10
7.3376335
20
-1.1914623
40
0.2067346
50
192.1739365
51
219.2061916
0
ARC
8
DEFAULT_255_1_234
10
7.3251906
20
-1.1993551
40
0.1921118
50
219.7279328
51
225.7542026
0
ARC
8
DEFAULT_255_1_234
10
7.3348955
20
-1.1872023
40
0.2075944
50
226.175737
51
256.3674722
0
ARC
8
DEFAULT_255_1_234
10
7.3618818
20
-1.0865104
40
0.3118201
50
255.9092917
51
268.8683903
0
ARC
8
DEFAULT_255_1_234
10
7.3665821
20
-1.0000243
40
0.3983935
50
268.438168
51
270.0083905
0
ARC
8
DEFAULT_255_1_234
10
7.3626769
20
-1.1401641
40
0.4068601
50
253.2878735
51
270.5581814
0
ARC
8
DEFAULT_255_1_234
10
7.340616
20
-1.2203379
40
0.3237344
50
223.454115
51
252.9470031
0
ARC
8
DEFAULT_255_1_234
10
7.3596
20
-1.2024838
40
0.349795
50
190.7869394
51
223.4384016
0
ARC
8
DEFAULT_255_1_234
10
7.5144681
20
-1.1677066
40
0.5084616
50
179.6605301
51
191.3704185
0
ARC
8
DEFAULT_255_1_234
10
7.5083504
20
-1.1610727
40
0.502348
50
168.2171172
51
180.4130393
0
ARC
8
DEFAULT_255_1_234
10
7.3459363
20
-1.1255649
40
0.3361092
50
145.9268222
51
168.4888551
0
ARC
8
DEFAULT_255_1_234
10
7.3120676
20
-1.1059209
40
0.2970617
50
137.9292255
51
145.4054003
0
ARC
8
DEFAULT_255_1_234
10
7.3017498
20
-1.0957648
40
0.2825983
50
94.3347696
51
138.0560701
0
ARC
8
DEFAULT_255_1_234
10
7.3187399
20
-1.2053255
40
0.393225
50
89.925209
51
95.5967654
0
ARC
8
DEFAULT_255_1_234
10
7.3131184
20
-1.1624363
40
0.3503892
50
67.8914096
51
88.9967724
0
ARC
8
DEFAULT_255_1_234
10
7.2084294
20
-1.4337951
40
0.6412172
50
56.9135351
51
68.3505194
0
ARC
8
DEFAULT_255_1_234
10
6.9529716
20
-1.8323647
40
1.1146189
50
49.6472867
51
57.095818
0
ARC
8
DEFAULT_255_1_234
10
6.6368
20
-2.2156644
40
1.6114559
50
47.2586784
51
49.9046139
0
ARC
8
DEFAULT_255_1_234
10
8.1126435
20
-0.4753616
40
0.1070357
50
253.5417914
51
270.5078233
0
ARC
8
DEFAULT_255_1_234
10
8.1074579
20
-0.4945798
40
0.0871371
50
228.1647447
51
253.2316401
0
ARC
8
DEFAULT_255_1_234
10
8.0979466
20
-0.5058019
40
0.0724329
50
195.6856465
51
227.8494928
0
ARC
8
DEFAULT_255_1_234
10
8.1363871
20
-0.4939587
40
0.1126485
50
182.6088068
51
196.1990587
0
ARC
8
DEFAULT_255_1_234
10
8.1759226
20
-0.4909214
40
0.1522861
50
179.9660831
51
183.0733434
0
ARC
8
DEFAULT_255_1_234
10
8.153768
20
-0.4898519
40
0.130135
50
168.4379222
51
180.4311858
0
ARC
8
DEFAULT_255_1_234
10
8.1087412
20
-0.4801939
40
0.0840873
50
146.8960528
51
168.7359558
0
ARC
8
DEFAULT_255_1_234
10
8.0977123
20
-0.4738712
40
0.0713991
50
132.6499553
51
146.3125067
0
ARC
8
DEFAULT_255_1_234
10
8.1094854
20
-0.4866825
40
0.0887984
50
93.8142714
51
132.6365749
0
ARC
8
DEFAULT_255_1_234
10
8.1134847
20
-0.5153024
40
0.1176392
50
89.9476902
51
94.8305927
0
ARC
8
DEFAULT_255_1_234
10
8.1145459
20
-0.4926865
40
0.0950282
50
70.9376387
51
90.5750546
0
ARC
8
DEFAULT_255_1_234
10
8.1175808
20
-0.4814369
40
0.0834082
50
46.0805399
51
70.3842391
0
ARC
8
DEFAULT_255_1_234
10
8.1229191
20
-0.475629
40
0.0755219
50
15.8514865
51
45.9414755
0
ARC
8
DEFAULT_255_1_234
10
8.0849651
20
-0.4873719
40
0.115244
50
3.1292529
51
16.3135479
0
ARC
8
DEFAULT_255_1_234
10
8.0447951
20
-0.490702
40
0.1555398
50
359.9524064
51
3.5463789
0
ARC
8
DEFAULT_255_1_234
10
8.0666208
20
-0.4918068
40
0.1337177
50
349.0490813
51
0.4180302
0
ARC
8
DEFAULT_255_1_234
10
8.1143607
20
-0.5014405
40
0.0850178
50
329.7587791
51
349.311372
0
ARC
8
DEFAULT_255_1_234
10
8.1294518
20
-0.5095374
40
0.0679053
50
312.6244131
51
329.247817
0
ARC
8
DEFAULT_255_1_234
10
8.1171381
20
-0.4960999
40
0.0861314
50
272.9227855
51
312.598345
0
ARC
8
DEFAULT_255_1_234
10
8.1136627
20
-0.469238
40
0.113155
50
269.9642935
51
273.9868025
0
LINE
8
DEFAULT_255_1_234
10
8.0702208
20
0.5982725
11
8.1915
21
0.5982725
0
LINE
8
DEFAULT_255_1_234
10
8.1915
20
0.5982725
11
8.1915
21
-0.1679554
0
LINE
8
DEFAULT_255_1_234
10
8.1915
20
-0.1679554
11
8.0846779
21
-0.1679554
0
LINE
8
DEFAULT_255_1_234
10
8.0846779
20
-0.1679554
11
7.6349005
21
0.2368442
0
LINE
8
DEFAULT_255_1_234
10
7.3666405
20
-0.0418571
11
7.3666405
21
-0.1904442
0
LINE
8
DEFAULT_255_1_234
10
7.7304782
20
0.3243902
11
8.0702208
21
0.0111524
0
LINE
8
DEFAULT_255_1_234
10
8.0702208
20
0.0111524
11
8.0702208
21
0.5982725
0
ARC
8
DEFAULT_255_1_234
10
6.4419473
20
-1.1121724
40
1.8008286
50
48.5132453
51
50.7828378
0
ARC
8
DEFAULT_255_1_234
10
6.8722574
20
-0.583475
40
1.1191493
50
50.7372736
51
53.9737074
0
ARC
8
DEFAULT_255_1_234
10
7.1562639
20
-0.1914894
40
0.6350923
50
53.8961724
51
58.6421089
0
ARC
8
DEFAULT_255_1_234
10
7.2824969
20
0.0131702
40
0.3946393
50
58.8299013
51
61.789948
0
ARC
8
DEFAULT_255_1_234
10
7.3339491
20
0.112888
40
0.2824501
50
61.4255242
51
82.9364833
0
ARC
8
DEFAULT_255_1_234
10
7.3370024
20
0.1265381
40
0.2685315
50
83.2248685
51
90.0169286
0
ARC
8
DEFAULT_255_1_234
10
7.334705
20
0.1475258
40
0.2475536
50
89.4866256
51
105.9339782
0
ARC
8
DEFAULT_255_1_234
10
7.3210714
20
0.1982243
40
0.1950618
50
106.1714718
51
133.5284424
0
ARC
8
DEFAULT_255_1_234
10
7.3133427
20
0.2059552
40
0.184134
50
133.4415429
51
173.1661404
0
ARC
8
DEFAULT_255_1_234
10
7.3870229
20
0.192547
40
0.258926
50
172.160215
51
180.1505798
0
ARC
8
DEFAULT_255_1_234
10
7.4407135
20
0.1893897
40
0.3126255
50
179.5460705
51
192.5418777
0
ARC
8
DEFAULT_255_1_234
10
7.3376335
20
0.1650983
40
0.2067346
50
192.1739365
51
219.2061916
0
ARC
8
DEFAULT_255_1_234
10
7.3251906
20
0.1572055
40
0.1921118
50
219.7279328
51
225.7542026
0
ARC
8
DEFAULT_255_1_234
10
7.3348955
20
0.1693583
40
0.2075944
50
226.175737
51
256.3674722
0
ARC
8
DEFAULT_255_1_234
10
7.3618818
20
0.2700502
40
0.3118201
50
255.9092917
51
268.8683903
0
ARC
8
DEFAULT_255_1_234
10
7.3665821
20
0.3565363
40
0.3983935
50
268.438168
51
270.0083905
0
ARC
8
DEFAULT_255_1_234
10
7.3626769
20
0.2163965
40
0.4068601
50
253.2878735
51
270.5581814
0
ARC
8
DEFAULT_255_1_234
10
7.340616
20
0.1362227
40
0.3237344
50
223.454115
51
252.9470031
0
ARC
8
DEFAULT_255_1_234
10
7.3596
20
0.1540768
40
0.349795
50
190.7869394
51
223.4384016
0
ARC
8
DEFAULT_255_1_234
10
7.5144681
20
0.188854
40
0.5084616
50
179.6605301
51
191.3704185
0
ARC
8
DEFAULT_255_1_234
10
7.5083504
20
0.1954878
40
0.502348
50
168.2171172
51
180.4130393
0
ARC
8
DEFAULT_255_1_234
10
7.3459363
20
0.2309957
40
0.3361092
50
145.9268222
51
168.4888551
0
ARC
8
DEFAULT_255_1_234
10
7.3120676
20
0.2506397
40
0.2970617
50
137.9292255
51
145.4054003
0
ARC
8
DEFAULT_255_1_234
10
7.3017498
20
0.2607957
40
0.2825983
50
94.3347696
51
138.0560701
0
ARC
8
DEFAULT_255_1_234
10
7.3187399
20
0.1512351
40
0.393225
50
89.925209
51
95.5967654
0
ARC
8
DEFAULT_255_1_234
10
7.3131184
20
0.1941243
40
0.3503892
50
67.8914096
51
88.9967724
0
ARC
8
DEFAULT_255_1_234
10
7.2084294
20
-0.0772345
40
0.6412172
50
56.9135351
51
68.3505194
0
ARC
8
DEFAULT_255_1_234
10
6.9529716
20
-0.4758041
40
1.1146189
50
49.6472867
51
57.095818
0
ARC
8
DEFAULT_255_1_234
10
6.6368
20
-0.8591038
40
1.6114559
50
47.2586784
51
49.9046139
0
LINE
8
DEFAULT_255_1_234
10
7.0220789
20
0.9492594
11
8.0654017
21
0.9492594
0
LINE
8
DEFAULT_255_1_234
10
8.0654017
20
0.9492594
11
8.0654017
21
1.5034494
0
LINE
8
DEFAULT_255_1_234
10
8.0654017
20
1.5034494
11
8.1915
21
1.5034494
0
LINE
8
DEFAULT_255_1_234
10
8.1915
20
1.5034494
11
8.1915
21
0.7942469
0
LINE
8
DEFAULT_255_1_234
10
8.1915
20
0.7942469
11
7.0220789
21
0.7942469
0
LINE
8
DEFAULT_255_1_234
10
7.0220789
20
0.7942469
11
7.0220789
21
0.9492594
0
LINE
8
DEFAULT_255_1_234
10
10.7160208
20
-0.8558881
11
10.8373
21
-0.8558881
0
LINE
8
DEFAULT_255_1_234
10
10.8373
20
-0.8558881
11
10.8373
21
-1.622116
0
LINE
8
DEFAULT_255_1_234
10
10.8373
20
-1.622116
11
10.7304779
21
-1.622116
0
LINE
8
DEFAULT_255_1_234
10
10.7304779
20
-1.622116
11
10.2807005
21
-1.2173164
0
LINE
8
DEFAULT_255_1_234
10
10.0124405
20
-1.4960177
11
10.0124405
21
-1.6446048
0
LINE
8
DEFAULT_255_1_234
10
10.3762782
20
-1.1297704
11
10.7160208
21
-1.4430082
0
LINE
8
DEFAULT_255_1_234
10
10.7160208
20
-1.4430082
11
10.7160208
21
-0.8558881
0
ARC
8
DEFAULT_255_1_234
10
9.0877473
20
-2.566333
40
1.8008286
50
48.5132453
51
50.7828378
0
ARC
8
DEFAULT_255_1_234
10
9.5180574
20
-2.0376356
40
1.1191493
50
50.7372736
51
53.9737074
0
ARC
8
DEFAULT_255_1_234
10
9.8020639
20
-1.6456499
40
0.6350923
50
53.8961724
51
58.6421089
0
ARC
8
DEFAULT_255_1_234
10
9.9282969
20
-1.4409904
40
0.3946393
50
58.8299013
51
61.789948
0
ARC
8
DEFAULT_255_1_234
10
9.9797491
20
-1.3412726
40
0.2824501
50
61.4255242
51
82.9364833
0
ARC
8
DEFAULT_255_1_234
10
9.9828024
20
-1.3276225
40
0.2685315
50
83.2248685
51
90.0169286
0
ARC
8
DEFAULT_255_1_234
10
9.980505
20
-1.3066348
40
0.2475536
50
89.4866256
51
105.9339782
0
ARC
8
DEFAULT_255_1_234
10
9.9668714
20
-1.2559363
40
0.1950618
50
106.1714718
51
133.5284424
0
ARC
8
DEFAULT_255_1_234
10
9.9591427
20
-1.2482054
40
0.184134
50
133.4415429
51
173.1661404
0
ARC
8
DEFAULT_255_1_234
10
10.0328229
20
-1.2616136
40
0.258926
50
172.160215
51
180.1505798
0
ARC
8
DEFAULT_255_1_234
10
10.0865135
20
-1.2647709
40
0.3126255
50
179.5460705
51
192.5418777
0
ARC
8
DEFAULT_255_1_234
10
9.9834335
20
-1.2890623
40
0.2067346
50
192.1739365
51
219.2061916
0
ARC
8
DEFAULT_255_1_234
10
9.9709906
20
-1.2969551
40
0.1921118
50
219.7279328
51
225.7542026
0
ARC
8
DEFAULT_255_1_234
10
9.9806955
20
-1.2848023
40
0.2075944
50
226.175737
51
256.3674722
0
ARC
8
DEFAULT_255_1_234
10
10.0076818
20
-1.1841104
40
0.3118201
50
255.9092917
51
268.8683903
0
ARC
8
DEFAULT_255_1_234
10
10.0123821
20
-1.0976243
40
0.3983935
50
268.438168
51
270.0083905
0
ARC
8
DEFAULT_255_1_234
10
10.0084769
20
-1.2377641
40
0.4068601
50
253.2878735
51
270.5581814
0
ARC
8
DEFAULT_255_1_234
10
9.986416
20
-1.3179379
40
0.3237344
50
223.454115
51
252.9470031
0
ARC
8
DEFAULT_255_1_234
10
10.0054
20
-1.3000838
40
0.349795
50
190.7869394
51
223.4384016
0
ARC
8
DEFAULT_255_1_234
10
10.1602681
20
-1.2653066
40
0.5084616
50
179.6605301
51
191.3704185
0
ARC
8
DEFAULT_255_1_234
10
10.1541504
20
-1.2586727
40
0.502348
50
168.2171172
51
180.4130393
0
ARC
8
DEFAULT_255_1_234
10
9.9917363
20
-1.2231649
40
0.3361092
50
145.9268222
51
168.4888551
0
ARC
8
DEFAULT_255_1_234
10
9.9578676
20
-1.2035209
40
0.2970617
50
137.9292255
51
145.4054003
0
ARC
8
DEFAULT_255_1_234
10
9.9475498
20
-1.1933648
40
0.2825983
50
94.3347696
51
138.0560701
0
ARC
8
DEFAULT_255_1_234
10
9.9645399
20
-1.3029255
40
0.393225
50
89.925209
51
95.5967654
0
ARC
8
DEFAULT_255_1_234
10
9.9589184
20
-1.2600363
40
0.3503892
50
67.8914096
51
88.9967724
0
ARC
8
DEFAULT_255_1_234
10
9.8542294
20
-1.5313951
40
0.6412172
50
56.9135351
51
68.3505194
0
ARC
8
DEFAULT_255_1_234
10
9.5987716
20
-1.9299647
40
1.1146189
50
49.6472867
51
57.095818
0
ARC
8
DEFAULT_255_1_234
10
9.2826
20
-2.3132644
40
1.6114559
50
47.2586784
51
49.9046139
0
LINE
8
DEFAULT_255_1_234
10
9.6678789
20
0.2388378
11
10.8373
21
0.2388378
0
LINE
8
DEFAULT_255_1_234
10
10.8373
20
0.2388378
11
10.8373
21
0.0838252
0
LINE
8
DEFAULT_255_1_234
10
10.8373
20
0.0838252
11
9.936139
21
-0.5049012
0
LINE
8
DEFAULT_255_1_234
10
9.936139
20
-0.5049012
11
10.8373
21
-0.5049012
0
LINE
8
DEFAULT_255_1_234
10
10.8373
20
-0.5049012
11
10.8373
21
-0.6599137
0
LINE
8
DEFAULT_255_1_234
10
10.8373
20
-0.6599137
11
9.6678789
21
-0.6599137
0
LINE
8
DEFAULT_255_1_234
10
9.6678789
20
-0.6599137
11
9.6678789
21
-0.5049012
0
LINE
8
DEFAULT_255_1_234
10
9.6678789
20
-0.5049012
11
10.5730558
21
0.0854316
0
LINE
8
DEFAULT_255_1_234
10
10.5730558
20
0.0854316
11
9.6678789
21
0.0854316
0
LINE
8
DEFAULT_255_1_234
10
9.6678789
20
0.0854316
11
9.6678789
21
0.2388378
0
ARC
8
DEFAULT_255_2_778
10
6.9755316
20
4.8949025
40
0.4954825
50
179.5165588
51
201.3602186
0
ARC
8
DEFAULT_255_2_778
10
7.0036415
20
4.9270091
40
0.533718
50
203.4715355
51
250.5351279
0
ARC
8
DEFAULT_255_2_778
10
7.1365076
20
5.2252218
40
0.8595518
50
248.8084847
51
270.3172368
0
ARC
8
DEFAULT_255_2_778
10
7.1503435
20
5.1926709
40
0.8270375
50
269.3711661
51
297.2065439
0
ARC
8
DEFAULT_255_2_778
10
7.3116624
20
4.8982309
40
0.4914979
50
296.1744084
51
349.1705963
0
ARC
8
DEFAULT_255_2_778
10
7.2737371
20
4.8978586
40
0.528731
50
349.9824115
51
0.1326968
0
ARC
8
DEFAULT_255_2_778
10
8.2979316
20
4.8949025
40
0.4954825
50
179.5165588
51
201.3602186
0
ARC
8
DEFAULT_255_2_778
10
8.3260415
20
4.9270091
40
0.533718
50
203.4715355
51
250.5351279
0
ARC
8
DEFAULT_255_2_778
10
8.4589076
20
5.2252218
40
0.8595518
50
248.8084847
51
270.3172368
0
ARC
8
DEFAULT_255_2_778
10
8.4727435
20
5.1926709
40
0.8270375
50
269.3711661
51
297.2065439
0
ARC
8
DEFAULT_255_2_778
10
8.6340624
20
4.8982309
40
0.4914979
50
296.1744084
51
349.1705963
0
ARC
8
DEFAULT_255_2_778
10
8.5961371
20
4.8978586
40
0.528731
50
349.9824115
51
0.1326968
0
ARC
8
DEFAULT_255_2_778
10
9.6206692
20
4.8948959
40
0.4958201
50
179.5161288
51
201.350718
0
ARC
8
DEFAULT_255_2_778
10
9.6486268
20
4.9269777
40
0.5339029
50
203.4654454
51
250.5933703
0
ARC
8
DEFAULT_255_2_778
10
9.7812285
20
5.2250712
40
0.8595135
50
248.8585759
51
270.3155521
0
LINE
8
DEFAULT_255_2_778
10
9.7859622
20
4.3655706
11
9.7860667
21
4.3655706
0
ARC
8
DEFAULT_255_2_778
10
9.7950385
20
5.192538
40
0.827016
50
269.3784215
51
297.21549
0
ARC
8
DEFAULT_255_2_778
10
9.9563398
20
4.8982557
40
0.4916233
50
296.1831415
51
349.1702311
0
ARC
8
DEFAULT_255_2_778
10
9.9185053
20
4.8978596
40
0.5287628
50
349.9827183
51
0.1325865
0
ARC
8
DEFAULT_255_2_778
10
10.9427634
20
4.8949024
40
0.4955143
50
179.5165751
51
201.3587584
0
ARC
8
DEFAULT_255_2_778
10
10.9708251
20
4.9269799
40
0.5336937
50
203.4692425
51
250.5330907
0
ARC
8
DEFAULT_255_2_778
10
11.1036586
20
5.2250996
40
0.8594296
50
248.8069586
51
270.3172139
0
ARC
8
DEFAULT_255_2_778
10
11.1174916
20
5.1925575
40
0.8269241
50
269.3712083
51
297.2084457
0
ARC
8
DEFAULT_255_2_778
10
11.2787649
20
4.8982168
40
0.4914933
50
296.1770318
51
349.1721626
0
ARC
8
DEFAULT_255_2_778
10
11.2408108
20
4.8978575
40
0.5287573
50
349.9830337
51
0.1328074
0
ARC
8
DEFAULT_255_2_778
10
10.8282271
20
2.3806097
40
0.9419462
50
359.785493
51
0.0030632
0
ARC
8
DEFAULT_255_2_778
10
10.9189371
20
2.384898
40
0.8512467
50
359.7147457
51
12.6571275
0
ARC
8
DEFAULT_255_2_778
10
11.0900266
20
2.4238237
40
0.6757859
50
12.6154731
51
30.8735035
0
ARC
8
DEFAULT_255_2_778
10
11.1437183
20
2.4529475
40
0.6147628
50
31.1115911
51
63.433442
0
ARC
8
DEFAULT_255_2_778
10
11.1133548
20
2.3908718
40
0.6838643
50
63.4841268
51
90.1697064
0
ARC
8
DEFAULT_255_2_778
10
11.1113292
20
2.3776047
40
0.6971284
50
90.0000003
51
90.1940911
0
ARC
8
DEFAULT_255_2_778
10
11.1026529
20
2.4188349
40
0.6559247
50
89.4483852
51
140.6749159
0
ARC
8
DEFAULT_255_2_778
10
11.1032101
20
2.4321838
40
0.6479843
50
141.61924
51
162.2902879
0
ARC
8
DEFAULT_255_2_778
10
11.2405271
20
2.3881193
40
0.792198
50
162.2754483
51
176.4574185
0
ARC
8
DEFAULT_255_2_778
10
11.3878989
20
2.3745732
40
0.9401357
50
176.1884048
51
179.84703
0
ARC
8
DEFAULT_255_2_778
10
9.4764413
20
2.3801369
40
0.9713303
50
359.8198711
51
359.9999043
0
ARC
8
DEFAULT_255_2_778
10
9.5958742
20
2.3843773
40
0.8519078
50
359.7146942
51
12.6568071
0
ARC
8
DEFAULT_255_2_778
10
9.7670566
20
2.4233226
40
0.676352
50
12.6152102
51
30.8715986
0
ARC
8
DEFAULT_255_2_778
10
9.8208848
20
2.4525465
40
0.6151601
50
31.1078617
51
63.3112481
0
ARC
8
DEFAULT_255_2_778
10
9.7905863
20
2.3907923
40
0.6839437
50
63.3670402
51
90.1702279
0
ARC
8
DEFAULT_255_2_778
10
9.7884833
20
2.3698575
40
0.7048757
50
89.9942325
51
90.1557263
0
ARC
8
DEFAULT_255_2_778
10
9.7798513
20
2.4191766
40
0.6555881
50
89.4130197
51
140.6862256
0
ARC
8
DEFAULT_255_2_778
10
9.7803566
20
2.4326257
40
0.647547
50
141.6352816
51
162.317238
0
ARC
8
DEFAULT_255_2_778
10
9.91787
20
2.388567
40
0.791946
50
162.3021937
51
176.4883834
0
ARC
8
DEFAULT_255_2_778
10
10.0655626
20
2.3750764
40
0.940198
50
176.2190961
51
179.8777113
0
ARC
8
DEFAULT_255_2_778
10
8.1163009
20
2.380724
40
1.0087698
50
359.8386484
51
359.9999196
0
ARC
8
DEFAULT_255_2_778
10
8.2743317
20
2.3849599
40
0.8507497
50
359.7146236
51
12.6673005
0
ARC
8
DEFAULT_255_2_778
10
8.4450511
20
2.4238264
40
0.6756627
50
12.6262957
51
30.8932941
0
ARC
8
DEFAULT_255_2_778
10
8.4981854
20
2.4525951
40
0.6153012
50
31.1348623
51
63.5656414
0
ARC
8
DEFAULT_255_2_778
10
8.4677063
20
2.3901498
40
0.6847862
50
63.6080254
51
90.1664663
0
ARC
8
DEFAULT_255_2_778
10
8.4657167
20
2.4005299
40
0.6744032
50
90.0000001
51
90.1528565
0
ARC
8
DEFAULT_255_2_778
10
8.4569416
20
2.4193658
40
0.6556021
50
89.390336
51
140.6554446
0
ARC
8
DEFAULT_255_2_778
10
8.4567993
20
2.4334872
40
0.6466301
50
141.6151454
51
162.3551056
0
ARC
8
DEFAULT_255_2_778
10
8.5941209
20
2.3895695
40
0.7908034
50
162.3386542
51
176.5094893
0
ARC
8
DEFAULT_255_2_778
10
8.7412472
20
2.3761877
40
0.9384818
50
176.2408917
51
179.896488
0
ARC
8
DEFAULT_255_2_778
10
6.7841956
20
2.3800943
40
1.0185736
50
359.8756232
51
359.9999538
0
ARC
8
DEFAULT_255_2_778
10
6.9506914
20
2.3843352
40
0.8520884
50
359.7147759
51
12.662943
0
ARC
8
DEFAULT_255_2_778
10
7.1217287
20
2.4232631
40
0.6766778
50
12.6217035
51
30.8827272
0
ARC
8
DEFAULT_255_2_778
10
7.1752966
20
2.4523293
40
0.6157908
50
31.120021
51
63.317447
0
ARC
8
DEFAULT_255_2_778
10
7.1449673
20
2.3905526
40
0.6846084
50
63.3711081
51
90.1684794
0
ARC
8
DEFAULT_255_2_778
10
7.1426073
20
2.5944235
40
0.4807348
50
89.9586492
51
90.1239572
0
ARC
8
DEFAULT_255_2_778
10
7.1341774
20
2.4199849
40
0.6552135
50
89.3537753
51
140.6649854
0
ARC
8
DEFAULT_255_2_778
10
7.134186
20
2.43401
40
0.6464215
50
141.6270041
51
162.3816312
0
ARC
8
DEFAULT_255_2_778
10
7.2719017
20
2.3900302
40
0.7909891
50
162.3646993
51
176.540568
0
ARC
8
DEFAULT_255_2_778
10
7.4193091
20
2.3766927
40
0.9389431
50
176.2709541
51
179.9273567
0
LINE
8
DEFAULT_255_2_778
10
6.4800667
20
10.3187831
11
6.4800667
21
4.8990831
0
LINE
8
DEFAULT_255_2_778
10
11.7695667
20
4.8990831
11
11.7695667
21
10.3187831
0
LINE
8
DEFAULT_255_2_778
10
11.7717667
20
-2.9104169
11
11.7701667
21
2.3770831
0
LINE
8
DEFAULT_255_2_778
10
9.1253667
20
2.3770831
11
9.1266667
21
-2.9104169
0
LINE
8
DEFAULT_255_2_778
10
6.4803667
20
2.3778831
11
6.4819667
21
-2.9104169
0
ENDSEC
0
EOF