0
SECTION
2
HEADER
9
$MEASUREMENT
70
1
0
ENDSEC
0
SECTION
2
TABLES
0
TABLE
2
LTYPE
0
LTYPE
72
65
70
64
2
CONTINUOUS
3
______
73
0
40
0
0
ENDTAB
0
TABLE
2
LAYER
0
LAYER
2
DEFAULT_255_1_234
70
0
62
255
6
CONTINUOUS
0
LAYER
2
DEFAULT_255_2_778
70
0
62
255
6
CONTINUOUS
0
ENDTAB
0
ENDSEC
0
SECTION
2
ENTITIES
0
LINE
8
DEFAULT_255_1_234
10
4.3693567
20
5.5245137
11
5.5444
21
5.5245137
0
LINE
8
DEFAULT_255_1_234
10
5.5444
20
5.5245137
11
5.5444
21
5.3751234
0
LINE
8
DEFAULT_255_1_234
10
5.5444
20
5.3751234
11
4.5540867
21
5.3751234
0
LINE
8
DEFAULT_255_1_234
10
4.5540867
20
5.3751234
11
4.6641215
21
5.0755396
0
LINE
8
DEFAULT_255_1_234
10
4.6641215
20
5.0755396
11
4.5291883
21
5.0755396
0
LINE
8
DEFAULT_255_1_234
10
4.5291883
20
5.0755396
11
4.3693567
21
5.5012217
0
LINE
8
DEFAULT_255_1_234
10
4.3693567
20
5.5012217
11
4.3693567
21
5.5245137
0
ARC
8
DEFAULT_255_1_234
10
5.4655435
20
6.0853384
40
0.1070357
50
253.5417914
51
270.5078233
0
ARC
8
DEFAULT_255_1_234
10
5.4603579
20
6.0661202
40
0.0871371
50
228.1647447
51
253.2316401
0
ARC
8
DEFAULT_255_1_234
10
5.4508466
20
6.0548981
40
0.0724329
50
195.6856465
51
227.8494928
0
ARC
8
DEFAULT_255_1_234
10
5.4892871
20
6.0667413
40
0.1126485
50
182.6088068
51
196.1990587
0
ARC
8
DEFAULT_255_1_234
10
5.5288226
20
6.0697786
40
0.1522861
50
179.9660831
51
183.0733434
0
ARC
8
DEFAULT_255_1_234
10
5.506668
20
6.0708481
40
0.130135
50
168.4379222
51
180.4311858
0
ARC
8
DEFAULT_255_1_234
10
5.4616412
20
6.0805061
40
0.0840873
50
146.8960528
51
168.7359558
0
ARC
8
DEFAULT_255_1_234
10
5.4506123
20
6.0868288
40
0.0713991
50
132.6499553
51
146.3125067
0
ARC
8
DEFAULT_255_1_234
10
5.4623854
20
6.0740175
40
0.0887984
50
93.8142714
51
132.6365749
0
ARC
8
DEFAULT_255_1_234
10
5.4663847
20
6.0453976
40
0.1176392
50
89.9476902
51
94.8305927
0
ARC
8
DEFAULT_255_1_234
10
5.4674459
20
6.0680135
40
0.0950282
50
70.9376387
51
90.5750546
0
ARC
8
DEFAULT_255_1_234
10
5.4704808
20
6.0792631
40
0.0834082
50
46.0805399
51
70.3842391
0
ARC
8
DEFAULT_255_1_234
10
5.4758191
20
6.085071
40
0.0755219
50
15.8514865
51
45.9414755
0
ARC
8
DEFAULT_255_1_234
10
5.4378651
20
6.0733281
40
0.115244
50
3.1292529
51
16.3135479
0
ARC
8
DEFAULT_255_1_234
10
5.3976951
20
6.069998
40
0.1555398
50
359.9524064
51
3.5463789
0
ARC
8
DEFAULT_255_1_234
10
5.4195208
20
6.0688932
40
0.1337177
50
349.0490813
51
0.4180302
0
ARC
8
DEFAULT_255_1_234
10
5.4672607
20
6.0592595
40
0.0850178
50
329.7587791
51
349.311372
0
ARC
8
DEFAULT_255_1_234
10
5.4823518
20
6.0511626
40
0.0679053
50
312.6244131
51
329.247817
0
ARC
8
DEFAULT_255_1_234
10
5.4700381
20
6.0646001
40
0.0861314
50
272.9227855
51
312.598345
0
ARC
8
DEFAULT_255_1_234
10
5.4665627
20
6.091462
40
0.113155
50
269.9642935
51
273.9868025
0
LINE
8
DEFAULT_255_1_234
10
4.3693567
20
6.8810743
11
5.5444
21
6.8810743
0
LINE
8
DEFAULT_255_1_234
10
5.5444
20
6.8810743
11
5.5444
21
6.731684
0
LINE
8
DEFAULT_255_1_234
10
5.5444
20
6.731684
11
4.5540867
21
6.731684
0
LINE
8
DEFAULT_255_1_234
10
4.5540867
20
6.731684
11
4.6641215
21
6.4321001
0
LINE
8
DEFAULT_255_1_234
10
4.6641215
20
6.4321001
11
4.5291883
21
6.4321001
0
LINE
8
DEFAULT_255_1_234
10
4.5291883
20
6.4321001
11
4.3693567
21
6.8577823
0
LINE
8
DEFAULT_255_1_234
10
4.3693567
20
6.8577823
11
4.3693567
21
6.8810743
0
LINE
8
DEFAULT_255_1_234
10
4.3749789
20
7.5099594
11
5.4183017
21
7.5099594
0
LINE
8
DEFAULT_255_1_234
10
5.4183017
20
7.5099594
11
5.4183017
21
8.0641494
0
LINE
8
DEFAULT_255_1_234
10
5.4183017
20
8.0641494
11
5.5444
21
8.0641494
0
LINE
8
DEFAULT_255_1_234
10
5.5444
20
8.0641494
11
5.5444
21
7.3549469
0
LINE
8
DEFAULT_255_1_234
10
5.5444
20
7.3549469
11
4.3749789
21
7.3549469
0
LINE
8
DEFAULT_255_1_234
10
4.3749789
20
7.3549469
11
4.3749789
21
7.5099594
0
LINE
8
DEFAULT_255_1_234
10
9.6621567
20
5.5245137
11
10.8372
21
5.5245137
0
LINE
8
DEFAULT_255_1_234
10
10.8372
20
5.5245137
11
10.8372
21
5.3751234
0
LINE
8
DEFAULT_255_1_234
10
10.8372
20
5.3751234
11
9.8468867
21
5.3751234
0
LINE
8
DEFAULT_255_1_234
10
9.8468867
20
5.3751234
11
9.9569215
21
5.0755396
0
LINE
8
DEFAULT_255_1_234
10
9.9569215
20
5.0755396
11
9.8219883
21
5.0755396
0
LINE
8
DEFAULT_255_1_234
10
9.8219883
20
5.0755396
11
9.6621567
21
5.5012217
0
LINE
8
DEFAULT_255_1_234
10
9.6621567
20
5.5012217
11
9.6621567
21
5.5245137
0
ARC
8
DEFAULT_255_1_234
10
10.7583435
20
6.0853384
40
0.1070357
50
253.5417914
51
270.5078233
0
ARC
8
DEFAULT_255_1_234
10
10.7531579
20
6.0661202
40
0.0871371
50
228.1647447
51
253.2316401
0
ARC
8
DEFAULT_255_1_234
10
10.7436466
20
6.0548981
40
0.0724329
50
195.6856465
51
227.8494928
0
ARC
8
DEFAULT_255_1_234
10
10.7820871
20
6.0667413
40
0.1126485
50
182.6088068
51
196.1990587
0
ARC
8
DEFAULT_255_1_234
10
10.8216226
20
6.0697786
40
0.1522861
50
179.9660831
51
183.0733434
0
ARC
8
DEFAULT_255_1_234
10
10.799468
20
6.0708481
40
0.130135
50
168.4379222
51
180.4311858
0
ARC
8
DEFAULT_255_1_234
10
10.7544412
20
6.0805061
40
0.0840873
50
146.8960528
51
168.7359558
0
ARC
8
DEFAULT_255_1_234
10
10.7434123
20
6.0868288
40
0.0713991
50
132.6499553
51
146.3125067
0
ARC
8
DEFAULT_255_1_234
10
10.7551854
20
6.0740175
40
0.0887984
50
93.8142714
51
132.6365749
0
ARC
8
DEFAULT_255_1_234
10
10.7591847
20
6.0453976
40
0.1176392
50
89.9476902
51
94.8305927
0
ARC
8
DEFAULT_255_1_234
10
10.7602459
20
6.0680135
40
0.0950282
50
70.9376387
51
90.5750546
0
ARC
8
DEFAULT_255_1_234
10
10.7632808
20
6.0792631
40
0.0834082
50
46.0805399
51
70.3842391
0
ARC
8
DEFAULT_255_1_234
10
10.7686191
20
6.085071
40
0.0755219
50
15.8514865
51
45.9414755
0
ARC
8
DEFAULT_255_1_234
10
10.7306651
20
6.0733281
40
0.115244
50
3.1292529
51
16.3135479
0
ARC
8
DEFAULT_255_1_234
10
10.6904951
20
6.069998
40
0.1555398
50
359.9524064
51
3.5463789
0
ARC
8
DEFAULT_255_1_234
10
10.7123208
20
6.0688932
40
0.1337177
50
349.0490813
51
0.4180302
0
ARC
8
DEFAULT_255_1_234
10
10.7600607
20
6.0592595
40
0.0850178
50
329.7587791
51
349.311372
0
ARC
8
DEFAULT_255_1_234
10
10.7751518
20
6.0511626
40
0.0679053
50
312.6244131
51
329.247817
0
ARC
8
DEFAULT_255_1_234
10
10.7628381
20
6.0646001
40
0.0861314
50
272.9227855
51
312.598345
0
ARC
8
DEFAULT_255_1_234
10
10.7593627
20
6.091462
40
0.113155
50
269.9642935
51
273.9868025
0
LINE
8
DEFAULT_255_1_234
10
10.7159208
20
7.1589725
11
10.8372
21
7.1589725
0
LINE
8
DEFAULT_255_1_234
10
10.8372
20
7.1589725
11
10.8372
21
6.3927446
0
LINE
8
DEFAULT_255_1_234
10
10.8372
20
6.3927446
11
10.7303779
21
6.3927446
0
LINE
8
DEFAULT_255_1_234
10
10.7303779
20
6.3927446
11
10.2806005
21
6.7975442
0
LINE
8
DEFAULT_255_1_234
10
10.0123405
20
6.5188429
11
10.0123405
21
6.3702558
0
LINE
8
DEFAULT_255_1_234
10
10.3761782
20
6.8850902
11
10.7159208
21
6.5718524
0
LINE
8
DEFAULT_255_1_234
10
10.7159208
20
6.5718524
11
10.7159208
21
7.1589725
0
ARC
8
DEFAULT_255_1_234
10
9.0876473
20
5.4485276
40
1.8008286
50
48.5132453
51
50.7828378
0
ARC
8
DEFAULT_255_1_234
10
9.5179574
20
5.977225
40
1.1191493
50
50.7372736
51
53.9737074
0
ARC
8
DEFAULT_255_1_234
10
9.8019639
20
6.3692106
40
0.6350923
50
53.8961724
51
58.6421089
0
ARC
8
DEFAULT_255_1_234
10
9.9281969
20
6.5738702
40
0.3946393
50
58.8299013
51
61.789948
0
ARC
8
DEFAULT_255_1_234
10
9.9796491
20
6.673588
40
0.2824501
50
61.4255242
51
82.9364833
0
ARC
8
DEFAULT_255_1_234
10
9.9827024
20
6.6872381
40
0.2685315
50
83.2248685
51
90.0169286
0
ARC
8
DEFAULT_255_1_234
10
9.980405
20
6.7082258
40
0.2475536
50
89.4866256
51
105.9339782
0
ARC
8
DEFAULT_255_1_234
10
9.9667714
20
6.7589243
40
0.1950618
50
106.1714718
51
133.5284424
0
ARC
8
DEFAULT_255_1_234
10
9.9590427
20
6.7666552
40
0.184134
50
133.4415429
51
173.1661404
0
ARC
8
DEFAULT_255_1_234
10
10.0327229
20
6.753247
40
0.258926
50
172.160215
51
180.1505798
0
ARC
8
DEFAULT_255_1_234
10
10.0864135
20
6.7500897
40
0.3126255
50
179.5460705
51
192.5418777
0
ARC
8
DEFAULT_255_1_234
10
9.9833335
20
6.7257983
40
0.2067346
50
192.1739365
51
219.2061916
0
ARC
8
DEFAULT_255_1_234
10
9.9708906
20
6.7179055
40
0.1921118
50
219.7279328
51
225.7542026
0
ARC
8
DEFAULT_255_1_234
10
9.9805955
20
6.7300583
40
0.2075944
50
226.175737
51
256.3674722
0
ARC
8
DEFAULT_255_1_234
10
10.0075818
20
6.8307502
40
0.3118201
50
255.9092917
51
268.8683903
0
ARC
8
DEFAULT_255_1_234
10
10.0122821
20
6.9172363
40
0.3983935
50
268.438168
51
270.0083905
0
ARC
8
DEFAULT_255_1_234
10
10.0083769
20
6.7770965
40
0.4068601
50
253.2878735
51
270.5581814
0
ARC
8
DEFAULT_255_1_234
10
9.986316
20
6.6969227
40
0.3237344
50
223.454115
51
252.9470031
0
ARC
8
DEFAULT_255_1_234
10
10.0053
20
6.7147768
40
0.349795
50
190.7869394
51
223.4384016
0
ARC
8
DEFAULT_255_1_234
10
10.1601681
20
6.749554
40
0.5084616
50
179.6605301
51
191.3704185
0
ARC
8
DEFAULT_255_1_234
10
10.1540504
20
6.7561878
40
0.502348
50
168.2171172
51
180.4130393
0
ARC
8
DEFAULT_255_1_234
10
9.9916363
20
6.7916957
40
0.3361092
50
145.9268222
51
168.4888551
0
ARC
8
DEFAULT_255_1_234
10
9.9577676
20
6.8113397
40
0.2970617
50
137.9292255
51
145.4054003
0
ARC
8
DEFAULT_255_1_234
10
9.9474498
20
6.8214957
40
0.2825983
50
94.3347696
51
138.0560701
0
ARC
8
DEFAULT_255_1_234
10
9.9644399
20
6.7119351
40
0.393225
50
89.925209
51
95.5967654
0
ARC
8
DEFAULT_255_1_234
10
9.9588184
20
6.7548243
40
0.3503892
50
67.8914096
51
88.9967724
0
ARC
8
DEFAULT_255_1_234
10
9.8541294
20
6.4834655
40
0.6412172
50
56.9135351
51
68.3505194
0
ARC
8
DEFAULT_255_1_234
10
9.5986716
20
6.0848959
40
1.1146189
50
49.6472867
51
57.095818
0
ARC
8
DEFAULT_255_1_234
10
9.2825
20
5.7015962
40
1.6114559
50
47.2586784
51
49.9046139
0
LINE
8
DEFAULT_255_1_234
10
9.6677789
20
7.5099594
11
10.7111017
21
7.5099594
0
LINE
8
DEFAULT_255_1_234
10
10.7111017
20
7.5099594
11
10.7111017
21
8.0641494
0
LINE
8
DEFAULT_255_1_234
10
10.7111017
20
8.0641494
11
10.8372
21
8.0641494
0
LINE
8
DEFAULT_255_1_234
10
10.8372
20
8.0641494
11
10.8372
21
7.3549469
0
LINE
8
DEFAULT_255_1_234
10
10.8372
20
7.3549469
11
9.6677789
21
7.3549469
0
LINE
8
DEFAULT_255_1_234
10
9.6677789
20
7.3549469
11
9.6677789
21
7.5099594
0
LINE
8
DEFAULT_255_1_234
10
14.9532567
20
5.5245137
11
16.1283
21
5.5245137
0
LINE
8
DEFAULT_255_1_234
10
16.1283
20
5.5245137
11
16.1283
21
5.3751234
0
LINE
8
DEFAULT_255_1_234
10
16.1283
20
5.3751234
11
15.1379867
21
5.3751234
0
LINE
8
DEFAULT_255_1_234
10
15.1379867
20
5.3751234
11
15.2480215
21
5.0755396
0
LINE
8
DEFAULT_255_1_234
10
15.2480215
20
5.0755396
11
15.1130883
21
5.0755396
0
LINE
8
DEFAULT_255_1_234
10
15.1130883
20
5.0755396
11
14.9532567
21
5.5012217
0
LINE
8
DEFAULT_255_1_234
10
14.9532567
20
5.5012217
11
14.9532567
21
5.5245137
0
ARC
8
DEFAULT_255_1_234
10
16.0494435
20
6.0853384
40
0.1070357
50
253.5417914
51
270.5078233
0
ARC
8
DEFAULT_255_1_234
10
16.0442579
20
6.0661202
40
0.0871371
50
228.1647447
51
253.2316401
0
ARC
8
DEFAULT_255_1_234
10
16.0347466
20
6.0548981
40
0.0724329
50
195.6856465
51
227.8494928
0
ARC
8
DEFAULT_255_1_234
10
16.0731871
20
6.0667413
40
0.1126485
50
182.6088068
51
196.1990587
0
ARC
8
DEFAULT_255_1_234
10
16.1127226
20
6.0697786
40
0.1522861
50
179.9660831
51
183.0733434
0
ARC
8
DEFAULT_255_1_234
10
16.090568
20
6.0708481
40
0.130135
50
168.4379222
51
180.4311858
0
ARC
8
DEFAULT_255_1_234
10
16.0455412
20
6.0805061
40
0.0840873
50
146.8960528
51
168.7359558
0
ARC
8
DEFAULT_255_1_234
10
16.0345123
20
6.0868288
40
0.0713991
50
132.6499553
51
146.3125067
0
ARC
8
DEFAULT_255_1_234
10
16.0462854
20
6.0740175
40
0.0887984
50
93.8142714
51
132.6365749
0
ARC
8
DEFAULT_255_1_234
10
16.0502847
20
6.0453976
40
0.1176392
50
89.9476902
51
94.8305927
0
ARC
8
DEFAULT_255_1_234
10
16.0513459
20
6.0680135
40
0.0950282
50
70.9376387
51
90.5750546
0
ARC
8
DEFAULT_255_1_234
10
16.0543808
20
6.0792631
40
0.0834082
50
46.0805399
51
70.3842391
0
ARC
8
DEFAULT_255_1_234
10
16.0597191
20
6.085071
40
0.0755219
50
15.8514865
51
45.9414755
0
ARC
8
DEFAULT_255_1_234
10
16.0217651
20
6.0733281
40
0.115244
50
3.1292529
51
16.3135479
0
ARC
8
DEFAULT_255_1_234
10
15.9815951
20
6.069998
40
0.1555398
50
359.9524064
51
3.5463789
0
ARC
8
DEFAULT_255_1_234
10
16.0034208
20
6.0688932
40
0.1337177
50
349.0490813
51
0.4180302
0
ARC
8
DEFAULT_255_1_234
10
16.0511607
20
6.0592595
40
0.0850178
50
329.7587791
51
349.311372
0
ARC
8
DEFAULT_255_1_234
10
16.0662518
20
6.0511626
40
0.0679053
50
312.6244131
51
329.247817
0
ARC
8
DEFAULT_255_1_234
10
16.0539381
20
6.0646001
40
0.0861314
50
272.9227855
51
312.598345
0
ARC
8
DEFAULT_255_1_234
10
16.0504627
20
6.091462
40
0.113155
50
269.9642935
51
273.9868025
0
LINE
8
DEFAULT_255_1_234
10
15.5925831
20
6.6087984
11
15.4713038
21
6.6087984
0
LINE
8
DEFAULT_255_1_234
10
15.4713038
20
6.6087984
11
15.4713038
21
6.7204396
0
LINE
8
DEFAULT_255_1_234
10
15.2656913
20
6.5300874
11
15.2656913
21
6.3815002
0
LINE
8
DEFAULT_255_1_234
10
15.8198812
20
6.3710589
11
15.8198812
21
6.5204493
0
LINE
8
DEFAULT_255_1_234
10
15.5925831
20
6.7204396
11
15.5925831
21
6.6087984
0
ARC
8
DEFAULT_255_1_234
10
15.1320287
20
6.7175262
40
0.3392876
50
0.4919872
51
11.8951556
0
ARC
8
DEFAULT_255_1_234
10
15.2422298
20
6.7416524
40
0.2264817
50
11.6691735
51
31.2943132
0
ARC
8
DEFAULT_255_1_234
10
15.2733696
20
6.7586734
40
0.1910381
50
31.7833094
51
41.7545298
0
ARC
8
DEFAULT_255_1_234
10
15.2835252
20
6.767831
40
0.1773635
50
41.7323931
51
84.2802411
0
ARC
8
DEFAULT_255_1_234
10
15.2710278
20
6.6951935
40
0.2509385
50
83.0937916
51
90.1181479
0
ARC
8
DEFAULT_255_1_234
10
15.2662614
20
6.649072
40
0.2970898
50
89.1805295
51
105.0453146
0
ARC
8
DEFAULT_255_1_234
10
15.2270008
20
6.7836557
40
0.1569564
50
103.9577229
51
167.6713066
0
ARC
8
DEFAULT_255_1_234
10
15.3655051
20
6.7450086
40
0.3006298
50
166.1116566
51
180.7026153
0
ARC
8
DEFAULT_255_1_234
10
15.3381455
20
6.7390924
40
0.2732568
50
179.5324876
51
193.531937
0
ARC
8
DEFAULT_255_1_234
10
15.2582116
20
6.7190368
40
0.1908508
50
193.2931773
51
223.5619022
0
ARC
8
DEFAULT_255_1_234
10
15.2522625
20
6.7145857
40
0.1834746
50
223.8349307
51
263.5344437
0
ARC
8
DEFAULT_255_1_234
10
15.2650787
20
6.78689
40
0.2568033
50
262.5096846
51
270.1366907
0
ARC
8
DEFAULT_255_1_234
10
15.2616378
20
6.6917794
40
0.3103056
50
245.3484492
51
270.7484736
0
ARC
8
DEFAULT_255_1_234
10
15.2645154
20
6.6868883
40
0.3070957
50
221.5744599
51
244.4798489
0
ARC
8
DEFAULT_255_1_234
10
15.296169
20
6.718203
40
0.3515643
50
186.9875458
51
221.9690667
0
ARC
8
DEFAULT_255_1_234
10
15.4207364
20
6.740151
40
0.4779224
50
179.8596053
51
187.7825159
0
ARC
8
DEFAULT_255_1_234
10
15.4469384
20
6.7449573
40
0.5041361
50
168.3655447
51
180.4131539
0
ARC
8
DEFAULT_255_1_234
10
15.2810113
20
6.7807491
40
0.3344039
50
146.6229102
51
168.638727
0
ARC
8
DEFAULT_255_1_234
10
15.2434195
20
6.8022435
40
0.2912001
50
137.0253525
51
146.0854072
0
ARC
8
DEFAULT_255_1_234
10
15.2394777
20
6.8042215
40
0.2869704
50
100.9208013
51
136.7778124
0
ARC
8
DEFAULT_255_1_234
10
15.2710143
20
6.6678281
40
0.426899
50
89.6364486
51
101.6087304
0
ARC
8
DEFAULT_255_1_234
10
15.2725248
20
6.8513125
40
0.243409
50
62.3549906
51
89.7179418
0
ARC
8
DEFAULT_255_1_234
10
15.2416858
20
6.7862727
40
0.3153459
50
55.2333722
51
62.8745602
0
ARC
8
DEFAULT_255_1_234
10
15.2523172
20
6.801535
40
0.2967456
50
22.9802137
51
55.2392345
0
ARC
8
DEFAULT_255_1_234
10
15.1989137
20
6.7740724
40
0.3566604
50
22.5402179
51
23.6924929
0
ARC
8
DEFAULT_255_1_234
10
15.8443909
20
6.813332
40
0.3307468
50
147.6435486
51
162.8625112
0
ARC
8
DEFAULT_255_1_234
10
15.7869451
20
6.848782
40
0.2632492
50
126.7248896
51
147.4697979
0
ARC
8
DEFAULT_255_1_234
10
15.785678
20
6.8476452
40
0.2634081
50
98.0545065
51
126.356114
0
ARC
8
DEFAULT_255_1_234
10
15.8011826
20
6.7613638
40
0.3510261
50
89.8320645
51
98.5869982
0
ARC
8
DEFAULT_255_1_234
10
15.8059899
20
6.7238414
40
0.3885653
50
73.9829931
51
90.5571613
0
ARC
8
DEFAULT_255_1_234
10
15.8302562
20
6.8124611
40
0.2966924
50
41.6359546
51
73.7651759
0
ARC
8
DEFAULT_255_1_234
10
15.7875898
20
6.774618
40
0.3537231
50
9.7829875
51
41.6255694
0
ARC
8
DEFAULT_255_1_234
10
15.643872
20
6.7444956
40
0.5004971
50
359.7286406
51
10.3856417
0
ARC
8
DEFAULT_255_1_234
10
15.6480004
20
6.7383029
40
0.4963778
50
346.6828919
51
0.4412052
0
ARC
8
DEFAULT_255_1_234
10
15.7864606
20
6.7044325
40
0.3538406
50
319.4223008
51
346.8556159
0
ARC
8
DEFAULT_255_1_234
10
15.8331264
20
6.6629718
40
0.2914296
50
271.818294
51
319.6455059
0
ARC
8
DEFAULT_255_1_234
10
15.8200504
20
6.7669674
40
0.3959084
50
269.9755256
51
273.2323064
0
ARC
8
DEFAULT_255_1_234
10
15.8220963
20
6.749742
40
0.2293034
50
269.4465117
51
286.2869258
0
ARC
8
DEFAULT_255_1_234
10
15.8354349
20
6.7009828
40
0.1787621
50
286.5661473
51
317.705904
0
ARC
8
DEFAULT_255_1_234
10
15.8170845
20
6.7173923
40
0.2033784
50
317.7652068
51
347.8762805
0
ARC
8
DEFAULT_255_1_234
10
15.7227844
20
6.7398893
40
0.3003081
50
347.4584385
51
0.426602
0
ARC
8
DEFAULT_255_1_234
10
15.6938004
20
6.7444459
40
0.329292
50
359.5962073
51
10.8789248
0
ARC
8
DEFAULT_255_1_234
10
15.8084315
20
6.7673988
40
0.2123908
50
10.6346389
51
29.8595945
0
ARC
8
DEFAULT_255_1_234
10
15.8446788
20
6.7864894
40
0.171457
50
30.3576302
51
44.5517981
0
ARC
8
DEFAULT_255_1_234
10
15.8386081
20
6.7781955
40
0.1816095
50
45.0728369
51
75.0431014
0
ARC
8
DEFAULT_255_1_234
10
15.8117159
20
6.6858769
40
0.2777492
50
74.5986631
51
87.9269593
0
ARC
8
DEFAULT_255_1_234
10
15.8055724
20
6.5963095
40
0.3674917
50
87.4748886
51
90.0231117
0
ARC
8
DEFAULT_255_1_234
10
15.8031321
20
6.6986205
40
0.2651907
50
89.5047933
51
103.4239635
0
ARC
8
DEFAULT_255_1_234
10
15.7809522
20
6.7852848
40
0.1757509
50
102.9498199
51
138.7551375
0
ARC
8
DEFAULT_255_1_234
10
15.80586
20
6.7670582
40
0.2065134
50
139.5088623
51
162.1836453
0
ARC
8
DEFAULT_255_1_234
10
15.9120709
20
6.7312735
40
0.3185836
50
161.9010081
51
174.3554254
0
ARC
8
DEFAULT_255_1_234
10
16.0481674
20
6.7151367
40
0.4556151
50
174.0193428
51
179.333121
0
LINE
8
DEFAULT_255_1_234
10
14.9588789
20
7.5099594
11
16.0022017
21
7.5099594
0
LINE
8
DEFAULT_255_1_234
10
16.0022017
20
7.5099594
11
16.0022017
21
8.0641494
0
LINE
8
DEFAULT_255_1_234
10
16.0022017
20
8.0641494
11
16.1283
21
8.0641494
0
LINE
8
DEFAULT_255_1_234
10
16.1283
20
8.0641494
11
16.1283
21
7.3549469
0
LINE
8
DEFAULT_255_1_234
10
16.1283
20
7.3549469
11
14.9588789
21
7.3549469
0
LINE
8
DEFAULT_255_1_234
10
14.9588789
20
7.3549469
11
14.9588789
21
7.5099594
0
LINE
8
DEFAULT_255_1_234
10
5.4231208
20
-0.6259881
11
5.5444
21
-0.6259881
0
LINE
8
DEFAULT_255_1_234
10
5.5444
20
-0.6259881
11
5.5444
21
-1.392216
0
LINE
8
DEFAULT_255_1_234
10
5.5444
20
-1.392216
11
5.4375779
21
-1.392216
0
LINE
8
DEFAULT_255_1_234
10
5.4375779
20
-1.392216
11
4.9878005
21
-0.9874164
0
LINE
8
DEFAULT_255_1_234
10
4.7195405
20
-1.2661177
11
4.7195405
21
-1.4147048
0
LINE
8
DEFAULT_255_1_234
10
5.0833782
20
-0.8998704
11
5.4231208
21
-1.2131082
0
LINE
8
DEFAULT_255_1_234
10
5.4231208
20
-1.2131082
11
5.4231208
21
-0.6259881
0
ARC
8
DEFAULT_255_1_234
10
3.7948473
20
-2.336433
40
1.8008286
50
48.5132453
51
50.7828378
0
ARC
8
DEFAULT_255_1_234
10
4.2251574
20
-1.8077356
40
1.1191493
50
50.7372736
51
53.9737074
0
ARC
8
DEFAULT_255_1_234
10
4.5091639
20
-1.4157499
40
0.6350923
50
53.8961724
51
58.6421089
0
ARC
8
DEFAULT_255_1_234
10
4.6353969
20
-1.2110904
40
0.3946393
50
58.8299013
51
61.789948
0
ARC
8
DEFAULT_255_1_234
10
4.6868491
20
-1.1113726
40
0.2824501
50
61.4255242
51
82.9364833
0
ARC
8
DEFAULT_255_1_234
10
4.6899024
20
-1.0977225
40
0.2685315
50
83.2248685
51
90.0169286
0
ARC
8
DEFAULT_255_1_234
10
4.687605
20
-1.0767348
40
0.2475536
50
89.4866256
51
105.9339782
0
ARC
8
DEFAULT_255_1_234
10
4.6739714
20
-1.0260363
40
0.1950618
50
106.1714718
51
133.5284424
0
ARC
8
DEFAULT_255_1_234
10
4.6662427
20
-1.0183054
40
0.184134
50
133.4415429
51
173.1661404
0
ARC
8
DEFAULT_255_1_234
10
4.7399229
20
-1.0317136
40
0.258926
50
172.160215
51
180.1505798
0
ARC
8
DEFAULT_255_1_234
10
4.7936135
20
-1.0348709
40
0.3126255
50
179.5460705
51
192.5418777
0
ARC
8
DEFAULT_255_1_234
10
4.6905335
20
-1.0591623
40
0.2067346
50
192.1739365
51
219.2061916
0
ARC
8
DEFAULT_255_1_234
10
4.6780906
20
-1.0670551
40
0.1921118
50
219.7279328
51
225.7542026
0
ARC
8
DEFAULT_255_1_234
10
4.6877955
20
-1.0549023
40
0.2075944
50
226.175737
51
256.3674722
0
ARC
8
DEFAULT_255_1_234
10
4.7147818
20
-0.9542104
40
0.3118201
50
255.9092917
51
268.8683903
0
ARC
8
DEFAULT_255_1_234
10
4.7194821
20
-0.8677243
40
0.3983935
50
268.438168
51
270.0083905
0
ARC
8
DEFAULT_255_1_234
10
4.7155769
20
-1.0078641
40
0.4068601
50
253.2878735
51
270.5581814
0
ARC
8
DEFAULT_255_1_234
10
4.693516
20
-1.0880379
40
0.3237344
50
223.454115
51
252.9470031
0
ARC
8
DEFAULT_255_1_234
10
4.7125
20
-1.0701838
40
0.349795
50
190.7869394
51
223.4384016
0
ARC
8
DEFAULT_255_1_234
10
4.8673681
20
-1.0354066
40
0.5084616
50
179.6605301
51
191.3704185
0
ARC
8
DEFAULT_255_1_234
10
4.8612504
20
-1.0287727
40
0.502348
50
168.2171172
51
180.4130393
0
ARC
8
DEFAULT_255_1_234
10
4.6988363
20
-0.9932649
40
0.3361092
50
145.9268222
51
168.4888551
0
ARC
8
DEFAULT_255_1_234
10
4.6649676
20
-0.9736209
40
0.2970617
50
137.9292255
51
145.4054003
0
ARC
8
DEFAULT_255_1_234
10
4.6546498
20
-0.9634648
40
0.2825983
50
94.3347696
51
138.0560701
0
ARC
8
DEFAULT_255_1_234
10
4.6716399
20
-1.0730255
40
0.393225
50
89.925209
51
95.5967654
0
ARC
8
DEFAULT_255_1_234
10
4.6660184
20
-1.0301363
40
0.3503892
50
67.8914096
51
88.9967724
0
ARC
8
DEFAULT_255_1_234
10
4.5613294
20
-1.3014951
40
0.6412172
50
56.9135351
51
68.3505194
0
ARC
8
DEFAULT_255_1_234
10
4.3058716
20
-1.7000647
40
1.1146189
50
49.6472867
51
57.095818
0
ARC
8
DEFAULT_255_1_234
10
3.9897
20
-2.0833644
40
1.6114559
50
47.2586784
51
49.9046139
0
ARC
8
DEFAULT_255_1_234
10
5.4655435
20
-0.3430616
40
0.1070357
50
253.5417914
51
270.5078233
0
ARC
8
DEFAULT_255_1_234
10
5.4603579
20
-0.3622798
40
0.0871371
50
228.1647447
51
253.2316401
0
ARC
8
DEFAULT_255_1_234
10
5.4508466
20
-0.3735019
40
0.0724329
50
195.6856465
51
227.8494928
0
ARC
8
DEFAULT_255_1_234
10
5.4892871
20
-0.3616587
40
0.1126485
50
182.6088068
51
196.1990587
0
ARC
8
DEFAULT_255_1_234
10
5.5288226
20
-0.3586214
40
0.1522861
50
179.9660831
51
183.0733434
0
ARC
8
DEFAULT_255_1_234
10
5.506668
20
-0.3575519
40
0.130135
50
168.4379222
51
180.4311858
0
ARC
8
DEFAULT_255_1_234
10
5.4616412
20
-0.3478939
40
0.0840873
50
146.8960528
51
168.7359558
0
ARC
8
DEFAULT_255_1_234
10
5.4506123
20
-0.3415712
40
0.0713991
50
132.6499553
51
146.3125067
0
ARC
8
DEFAULT_255_1_234
10
5.4623854
20
-0.3543825
40
0.0887984
50
93.8142714
51
132.6365749
0
ARC
8
DEFAULT_255_1_234
10
5.4663847
20
-0.3830024
40
0.1176392
50
89.9476902
51
94.8305927
0
ARC
8
DEFAULT_255_1_234
10
5.4674459
20
-0.3603865
40
0.0950282
50
70.9376387
51
90.5750546
0
ARC
8
DEFAULT_255_1_234
10
5.4704808
20
-0.3491369
40
0.0834082
50
46.0805399
51
70.3842391
0
ARC
8
DEFAULT_255_1_234
10
5.4758191
20
-0.343329
40
0.0755219
50
15.8514865
51
45.9414755
0
ARC
8
DEFAULT_255_1_234
10
5.4378651
20
-0.3550719
40
0.115244
50
3.1292529
51
16.3135479
0
ARC
8
DEFAULT_255_1_234
10
5.3976951
20
-0.358402
40
0.1555398
50
359.9524064
51
3.5463789
0
ARC
8
DEFAULT_255_1_234
10
5.4195208
20
-0.3595068
40
0.1337177
50
349.0490813
51
0.4180302
0
ARC
8
DEFAULT_255_1_234
10
5.4672607
20
-0.3691405
40
0.0850178
50
329.7587791
51
349.311372
0
ARC
8
DEFAULT_255_1_234
10
5.4823518
20
-0.3772374
40
0.0679053
50
312.6244131
51
329.247817
0
ARC
8
DEFAULT_255_1_234
10
5.4700381
20
-0.3637999
40
0.0861314
50
272.9227855
51
312.598345
0
ARC
8
DEFAULT_255_1_234
10
5.4665627
20
-0.336938
40
0.113155
50
269.9642935
51
273.9868025
0
LINE
8
DEFAULT_255_1_234
10
4.3693567
20
0.4526743
11
5.5444
21
0.4526743
0
LINE
8
DEFAULT_255_1_234
10
5.5444
20
0.4526743
11
5.5444
21
0.303284
0
LINE
8
DEFAULT_255_1_234
10
5.5444
20
0.303284
11
4.5540867
21
0.303284
0
LINE
8
DEFAULT_255_1_234
10
4.5540867
20
0.303284
11
4.6641215
21
0.0037001
0
LINE
8
DEFAULT_255_1_234
10
4.6641215
20
0.0037001
11
4.5291883
21
0.0037001
0
LINE
8
DEFAULT_255_1_234
10
4.5291883
20
0.0037001
11
4.3693567
21
0.4293823
0
LINE
8
DEFAULT_255_1_234
10
4.3693567
20
0.4293823
11
4.3693567
21
0.4526743
0
LINE
8
DEFAULT_255_1_234
10
4.3749789
20
1.0815594
11
5.4183017
21
1.0815594
0
LINE
8
DEFAULT_255_1_234
10
5.4183017
20
1.0815594
11
5.4183017
21
1.6357494
0
LINE
8
DEFAULT_255_1_234
10
5.4183017
20
1.6357494
11
5.5444
21
1.6357494
0
LINE
8
DEFAULT_255_1_234
10
5.5444
20
1.6357494
11
5.5444
21
0.9265469
0
LINE
8
DEFAULT_255_1_234
10
5.5444
20
0.9265469
11
4.3749789
21
0.9265469
0
LINE
8
DEFAULT_255_1_234
10
4.3749789
20
0.9265469
11
4.3749789
21
1.0815594
0
LINE
8
DEFAULT_255_1_234
10
10.7159208
20
-0.6259881
11
10.8372
21
-0.6259881
0
LINE
8
DEFAULT_255_1_234
10
10.8372
20
-0.6259881
11
10.8372
21
-1.392216
0
LINE
8
DEFAULT_255_1_234
10
10.8372
20
-1.392216
11
10.7303779
21
-1.392216
0
LINE
8
DEFAULT_255_1_234
10
10.7303779
20
-1.392216
11
10.2806005
21
-0.9874164
0
LINE
8
DEFAULT_255_1_234
10
10.0123405
20
-1.2661177
11
10.0123405
21
-1.4147048
0
LINE
8
DEFAULT_255_1_234
10
10.3761782
20
-0.8998704
11
10.7159208
21
-1.2131082
0
LINE
8
DEFAULT_255_1_234
10
10.7159208
20
-1.2131082
11
10.7159208
21
-0.6259881
0
ARC
8
DEFAULT_255_1_234
10
9.0876473
20
-2.336433
40
1.8008286
50
48.5132453
51
50.7828378
0
ARC
8
DEFAULT_255_1_234
10
9.5179574
20
-1.8077356
40
1.1191493
50
50.7372736
51
53.9737074
0
ARC
8
DEFAULT_255_1_234
10
9.8019639
20
-1.4157499
40
0.6350923
50
53.8961724
51
58.6421089
0
ARC
8
DEFAULT_255_1_234
10
9.9281969
20
-1.2110904
40
0.3946393
50
58.8299013
51
61.789948
0
ARC
8
DEFAULT_255_1_234
10
9.9796491
20
-1.1113726
40
0.2824501
50
61.4255242
51
82.9364833
0
ARC
8
DEFAULT_255_1_234
10
9.9827024
20
-1.0977225
40
0.2685315
50
83.2248685
51
90.0169286
0
ARC
8
DEFAULT_255_1_234
10
9.980405
20
-1.0767348
40
0.2475536
50
89.4866256
51
105.9339782
0
ARC
8
DEFAULT_255_1_234
10
9.9667714
20
-1.0260363
40
0.1950618
50
106.1714718
51
133.5284424
0
ARC
8
DEFAULT_255_1_234
10
9.9590427
20
-1.0183054
40
0.184134
50
133.4415429
51
173.1661404
0
ARC
8
DEFAULT_255_1_234
10
10.0327229
20
-1.0317136
40
0.258926
50
172.160215
51
180.1505798
0
ARC
8
DEFAULT_255_1_234
10
10.0864135
20
-1.0348709
40
0.3126255
50
179.5460705
51
192.5418777
0
ARC
8
DEFAULT_255_1_234
10
9.9833335
20
-1.0591623
40
0.2067346
50
192.1739365
51
219.2061916
0
ARC
8
DEFAULT_255_1_234
10
9.9708906
20
-1.0670551
40
0.1921118
50
219.7279328
51
225.7542026
0
ARC
8
DEFAULT_255_1_234
10
9.9805955
20
-1.0549023
40
0.2075944
50
226.175737
51
256.3674722
0
ARC
8
DEFAULT_255_1_234
10
10.0075818
20
-0.9542104
40
0.3118201
50
255.9092917
51
268.8683903
0
ARC
8
DEFAULT_255_1_234
10
10.0122821
20
-0.8677243
40
0.3983935
50
268.438168
51
270.0083905
0
ARC
8
DEFAULT_255_1_234
10
10.0083769
20
-1.0078641
40
0.4068601
50
253.2878735
51
270.5581814
0
ARC
8
DEFAULT_255_1_234
10
9.986316
20
-1.0880379
40
0.3237344
50
223.454115
51
252.9470031
0
ARC
8
DEFAULT_255_1_234
10
10.0053
20
-1.0701838
40
0.349795
50
190.7869394
51
223.4384016
0
ARC
8
DEFAULT_255_1_234
10
10.1601681
20
-1.0354066
40
0.5084616
50
179.6605301
51
191.3704185
0
ARC
8
DEFAULT_255_1_234
10
10.1540504
20
-1.0287727
40
0.502348
50
168.2171172
51
180.4130393
0
ARC
8
DEFAULT_255_1_234
10
9.9916363
20
-0.9932649
40
0.3361092
50
145.9268222
51
168.4888551
0
ARC
8
DEFAULT_255_1_234
10
9.9577676
20
-0.9736209
40
0.2970617
50
137.9292255
51
145.4054003
0
ARC
8
DEFAULT_255_1_234
10
9.9474498
20
-0.9634648
40
0.2825983
50
94.3347696
51
138.0560701
0
ARC
8
DEFAULT_255_1_234
10
9.9644399
20
-1.0730255
40
0.393225
50
89.925209
51
95.5967654
0
ARC
8
DEFAULT_255_1_234
10
9.9588184
20
-1.0301363
40
0.3503892
50
67.8914096
51
88.9967724
0
ARC
8
DEFAULT_255_1_234
10
9.8541294
20
-1.3014951
40
0.6412172
50
56.9135351
51
68.3505194
0
ARC
8
DEFAULT_255_1_234
10
9.5986716
20
-1.7000647
40
1.1146189
50
49.6472867
51
57.095818
0
ARC
8
DEFAULT_255_1_234
10
9.2825
20
-2.0833644
40
1.6114559
50
47.2586784
51
49.9046139
0
ARC
8
DEFAULT_255_1_234
10
10.7583435
20
-0.3430616
40
0.1070357
50
253.5417914
51
270.5078233
0
ARC
8
DEFAULT_255_1_234
10
10.7531579
20
-0.3622798
40
0.0871371
50
228.1647447
51
253.2316401
0
ARC
8
DEFAULT_255_1_234
10
10.7436466
20
-0.3735019
40
0.0724329
50
195.6856465
51
227.8494928
0
ARC
8
DEFAULT_255_1_234
10
10.7820871
20
-0.3616587
40
0.1126485
50
182.6088068
51
196.1990587
0
ARC
8
DEFAULT_255_1_234
10
10.8216226
20
-0.3586214
40
0.1522861
50
179.9660831
51
183.0733434
0
ARC
8
DEFAULT_255_1_234
10
10.799468
20
-0.3575519
40
0.130135
50
168.4379222
51
180.4311858
0
ARC
8
DEFAULT_255_1_234
10
10.7544412
20
-0.3478939
40
0.0840873
50
146.8960528
51
168.7359558
0
ARC
8
DEFAULT_255_1_234
10
10.7434123
20
-0.3415712
40
0.0713991
50
132.6499553
51
146.3125067
0
ARC
8
DEFAULT_255_1_234
10
10.7551854
20
-0.3543825
40
0.0887984
50
93.8142714
51
132.6365749
0
ARC
8
DEFAULT_255_1_234
10
10.7591847
20
-0.3830024
40
0.1176392
50
89.9476902
51
94.8305927
0
ARC
8
DEFAULT_255_1_234
10
10.7602459
20
-0.3603865
40
0.0950282
50
70.9376387
51
90.5750546
0
ARC
8
DEFAULT_255_1_234
10
10.7632808
20
-0.3491369
40
0.0834082
50
46.0805399
51
70.3842391
0
ARC
8
DEFAULT_255_1_234
10
10.7686191
20
-0.343329
40
0.0755219
50
15.8514865
51
45.9414755
0
ARC
8
DEFAULT_255_1_234
10
10.7306651
20
-0.3550719
40
0.115244
50
3.1292529
51
16.3135479
0
ARC
8
DEFAULT_255_1_234
10
10.6904951
20
-0.358402
40
0.1555398
50
359.9524064
51
3.5463789
0
ARC
8
DEFAULT_255_1_234
10
10.7123208
20
-0.3595068
40
0.1337177
50
349.0490813
51
0.4180302
0
ARC
8
DEFAULT_255_1_234
10
10.7600607
20
-0.3691405
40
0.0850178
50
329.7587791
51
349.311372
0
ARC
8
DEFAULT_255_1_234
10
10.7751518
20
-0.3772374
40
0.0679053
50
312.6244131
51
329.247817
0
ARC
8
DEFAULT_255_1_234
10
10.7628381
20
-0.3637999
40
0.0861314
50
272.9227855
51
312.598345
0
ARC
8
DEFAULT_255_1_234
10
10.7593627
20
-0.336938
40
0.113155
50
269.9642935
51
273.9868025
0
LINE
8
DEFAULT_255_1_234
10
10.7159208
20
0.7305725
11
10.8372
21
0.7305725
0
LINE
8
DEFAULT_255_1_234
10
10.8372
20
0.7305725
11
10.8372
21
-0.0356554
0
LINE
8
DEFAULT_255_1_234
10
10.8372
20
-0.0356554
11
10.7303779
21
-0.0356554
0
LINE
8
DEFAULT_255_1_234
10
10.7303779
20
-0.0356554
11
10.2806005
21
0.3691442
0
LINE
8
DEFAULT_255_1_234
10
10.0123405
20
0.0904429
11
10.0123405
21
-0.0581442
0
LINE
8
DEFAULT_255_1_234
10
10.3761782
20
0.4566902
11
10.7159208
21
0.1434524
0
LINE
8
DEFAULT_255_1_234
10
10.7159208
20
0.1434524
11
10.7159208
21
0.7305725
0
ARC
8
DEFAULT_255_1_234
10
9.0876473
20
-0.9798724
40
1.8008286
50
48.5132453
51
50.7828378
0
ARC
8
DEFAULT_255_1_234
10
9.5179574
20
-0.451175
40
1.1191493
50
50.7372736
51
53.9737074
0
ARC
8
DEFAULT_255_1_234
10
9.8019639
20
-0.0591894
40
0.6350923
50
53.8961724
51
58.6421089
0
ARC
8
DEFAULT_255_1_234
10
9.9281969
20
0.1454702
40
0.3946393
50
58.8299013
51
61.789948
0
ARC
8
DEFAULT_255_1_234
10
9.9796491
20
0.245188
40
0.2824501
50
61.4255242
51
82.9364833
0
ARC
8
DEFAULT_255_1_234
10
9.9827024
20
0.2588381
40
0.2685315
50
83.2248685
51
90.0169286
0
ARC
8
DEFAULT_255_1_234
10
9.980405
20
0.2798258
40
0.2475536
50
89.4866256
51
105.9339782
0
ARC
8
DEFAULT_255_1_234
10
9.9667714
20
0.3305243
40
0.1950618
50
106.1714718
51
133.5284424
0
ARC
8
DEFAULT_255_1_234
10
9.9590427
20
0.3382552
40
0.184134
50
133.4415429
51
173.1661404
0
ARC
8
DEFAULT_255_1_234
10
10.0327229
20
0.324847
40
0.258926
50
172.160215
51
180.1505798
0
ARC
8
DEFAULT_255_1_234
10
10.0864135
20
0.3216897
40
0.3126255
50
179.5460705
51
192.5418777
0
ARC
8
DEFAULT_255_1_234
10
9.9833335
20
0.2973983
40
0.2067346
50
192.1739365
51
219.2061916
0
ARC
8
DEFAULT_255_1_234
10
9.9708906
20
0.2895055
40
0.1921118
50
219.7279328
51
225.7542026
0
ARC
8
DEFAULT_255_1_234
10
9.9805955
20
0.3016583
40
0.2075944
50
226.175737
51
256.3674722
0
ARC
8
DEFAULT_255_1_234
10
10.0075818
20
0.4023502
40
0.3118201
50
255.9092917
51
268.8683903
0
ARC
8
DEFAULT_255_1_234
10
10.0122821
20
0.4888363
40
0.3983935
50
268.438168
51
270.0083905
0
ARC
8
DEFAULT_255_1_234
10
10.0083769
20
0.3486965
40
0.4068601
50
253.2878735
51
270.5581814
0
ARC
8
DEFAULT_255_1_234
10
9.986316
20
0.2685227
40
0.3237344
50
223.454115
51
252.9470031
0
ARC
8
DEFAULT_255_1_234
10
10.0053
20
0.2863768
40
0.349795
50
190.7869394
51
223.4384016
0
ARC
8
DEFAULT_255_1_234
10
10.1601681
20
0.321154
40
0.5084616
50
179.6605301
51
191.3704185
0
ARC
8
DEFAULT_255_1_234
10
10.1540504
20
0.3277878
40
0.502348
50
168.2171172
51
180.4130393
0
ARC
8
DEFAULT_255_1_234
10
9.9916363
20
0.3632957
40
0.3361092
50
145.9268222
51
168.4888551
0
ARC
8
DEFAULT_255_1_234
10
9.9577676
20
0.3829397
40
0.2970617
50
137.9292255
51
145.4054003
0
ARC
8
DEFAULT_255_1_234
10
9.9474498
20
0.3930957
40
0.2825983
50
94.3347696
51
138.0560701
0
ARC
8
DEFAULT_255_1_234
10
9.9644399
20
0.2835351
40
0.393225
50
89.925209
51
95.5967654
0
ARC
8
DEFAULT_255_1_234
10
9.9588184
20
0.3264243
40
0.3503892
50
67.8914096
51
88.9967724
0
ARC
8
DEFAULT_255_1_234
10
9.8541294
20
0.0550655
40
0.6412172
50
56.9135351
51
68.3505194
0
ARC
8
DEFAULT_255_1_234
10
9.5986716
20
-0.3435041
40
1.1146189
50
49.6472867
51
57.095818
0
ARC
8
DEFAULT_255_1_234
10
9.2825
20
-0.7268038
40
1.6114559
50
47.2586784
51
49.9046139
0
LINE
8
DEFAULT_255_1_234
10
9.6677789
20
1.0815594
11
10.7111017
21
1.0815594
0
LINE
8
DEFAULT_255_1_234
10
10.7111017
20
1.0815594
11
10.7111017
21
1.6357494
0
LINE
8
DEFAULT_255_1_234
10
10.7111017
20
1.6357494
11
10.8372
21
1.6357494
0
LINE
8
DEFAULT_255_1_234
10
10.8372
20
1.6357494
11
10.8372
21
0.9265469
0
LINE
8
DEFAULT_255_1_234
10
10.8372
20
0.9265469
11
9.6677789
21
0.9265469
0
LINE
8
DEFAULT_255_1_234
10
9.6677789
20
0.9265469
11
9.6677789
21
1.0815594
0
LINE
8
DEFAULT_255_1_234
10
16.0070208
20
-0.6259881
11
16.1283
21
-0.6259881
0
LINE
8
DEFAULT_255_1_234
10
16.1283
20
-0.6259881
11
16.1283
21
-1.392216
0
LINE
8
DEFAULT_255_1_234
10
16.1283
20
-1.392216
11
16.0214779
21
-1.392216
0
LINE
8
DEFAULT_255_1_234
10
16.0214779
20
-1.392216
11
15.5717005
21
-0.9874164
0
LINE
8
DEFAULT_255_1_234
10
15.3034405
20
-1.2661177
11
15.3034405
21
-1.4147048
0
LINE
8
DEFAULT_255_1_234
10
15.6672782
20
-0.8998704
11
16.0070208
21
-1.2131082
0
LINE
8
DEFAULT_255_1_234
10
16.0070208
20
-1.2131082
11
16.0070208
21
-0.6259881
0
ARC
8
DEFAULT_255_1_234
10
14.3787473
20
-2.336433
40
1.8008286
50
48.5132453
51
50.7828378
0
ARC
8
DEFAULT_255_1_234
10
14.8090574
20
-1.8077356
40
1.1191493
50
50.7372736
51
53.9737074
0
ARC
8
DEFAULT_255_1_234
10
15.0930639
20
-1.4157499
40
0.6350923
50
53.8961724
51
58.6421089
0
ARC
8
DEFAULT_255_1_234
10
15.2192969
20
-1.2110904
40
0.3946393
50
58.8299013
51
61.789948
0
ARC
8
DEFAULT_255_1_234
10
15.2707491
20
-1.1113726
40
0.2824501
50
61.4255242
51
82.9364833
0
ARC
8
DEFAULT_255_1_234
10
15.2738024
20
-1.0977225
40
0.2685315
50
83.2248685
51
90.0169286
0
ARC
8
DEFAULT_255_1_234
10
15.271505
20
-1.0767348
40
0.2475536
50
89.4866256
51
105.9339782
0
ARC
8
DEFAULT_255_1_234
10
15.2578714
20
-1.0260363
40
0.1950618
50
106.1714718
51
133.5284424
0
ARC
8
DEFAULT_255_1_234
10
15.2501427
20
-1.0183054
40
0.184134
50
133.4415429
51
173.1661404
0
ARC
8
DEFAULT_255_1_234
10
15.3238229
20
-1.0317136
40
0.258926
50
172.160215
51
180.1505798
0
ARC
8
DEFAULT_255_1_234
10
15.3775135
20
-1.0348709
40
0.3126255
50
179.5460705
51
192.5418777
0
ARC
8
DEFAULT_255_1_234
10
15.2744335
20
-1.0591623
40
0.2067346
50
192.1739365
51
219.2061916
0
ARC
8
DEFAULT_255_1_234
10
15.2619906
20
-1.0670551
40
0.1921118
50
219.7279328
51
225.7542026
0
ARC
8
DEFAULT_255_1_234
10
15.2716955
20
-1.0549023
40
0.2075944
50
226.175737
51
256.3674722
0
ARC
8
DEFAULT_255_1_234
10
15.2986818
20
-0.9542104
40
0.3118201
50
255.9092917
51
268.8683903
0
ARC
8
DEFAULT_255_1_234
10
15.3033821
20
-0.8677243
40
0.3983935
50
268.438168
51
270.0083905
0
ARC
8
DEFAULT_255_1_234
10
15.2994769
20
-1.0078641
40
0.4068601
50
253.2878735
51
270.5581814
0
ARC
8
DEFAULT_255_1_234
10
15.277416
20
-1.0880379
40
0.3237344
50
223.454115
51
252.9470031
0
ARC
8
DEFAULT_255_1_234
10
15.2964
20
-1.0701838
40
0.349795
50
190.7869394
51
223.4384016
0
ARC
8
DEFAULT_255_1_234
10
15.4512681
20
-1.0354066
40
0.5084616
50
179.6605301
51
191.3704185
0
ARC
8
DEFAULT_255_1_234
10
15.4451504
20
-1.0287727
40
0.502348
50
168.2171172
51
180.4130393
0
ARC
8
DEFAULT_255_1_234
10
15.2827363
20
-0.9932649
40
0.3361092
50
145.9268222
51
168.4888551
0
ARC
8
DEFAULT_255_1_234
10
15.2488676
20
-0.9736209
40
0.2970617
50
137.9292255
51
145.4054003
0
ARC
8
DEFAULT_255_1_234
10
15.2385498
20
-0.9634648
40
0.2825983
50
94.3347696
51
138.0560701
0
ARC
8
DEFAULT_255_1_234
10
15.2555399
20
-1.0730255
40
0.393225
50
89.925209
51
95.5967654
0
ARC
8
DEFAULT_255_1_234
10
15.2499184
20
-1.0301363
40
0.3503892
50
67.8914096
51
88.9967724
0
ARC
8
DEFAULT_255_1_234
10
15.1452294
20
-1.3014951
40
0.6412172
50
56.9135351
51
68.3505194
0
ARC
8
DEFAULT_255_1_234
10
14.8897716
20
-1.7000647
40
1.1146189
50
49.6472867
51
57.095818
0
ARC
8
DEFAULT_255_1_234
10
14.5736
20
-2.0833644
40
1.6114559
50
47.2586784
51
49.9046139
0
ARC
8
DEFAULT_255_1_234
10
16.0494435
20
-0.3430616
40
0.1070357
50
253.5417914
51
270.5078233
0
ARC
8
DEFAULT_255_1_234
10
16.0442579
20
-0.3622798
40
0.0871371
50
228.1647447
51
253.2316401
0
ARC
8
DEFAULT_255_1_234
10
16.0347466
20
-0.3735019
40
0.0724329
50
195.6856465
51
227.8494928
0
ARC
8
DEFAULT_255_1_234
10
16.0731871
20
-0.3616587
40
0.1126485
50
182.6088068
51
196.1990587
0
ARC
8
DEFAULT_255_1_234
10
16.1127226
20
-0.3586214
40
0.1522861
50
179.9660831
51
183.0733434
0
ARC
8
DEFAULT_255_1_234
10
16.090568
20
-0.3575519
40
0.130135
50
168.4379222
51
180.4311858
0
ARC
8
DEFAULT_255_1_234
10
16.0455412
20
-0.3478939
40
0.0840873
50
146.8960528
51
168.7359558
0
ARC
8
DEFAULT_255_1_234
10
16.0345123
20
-0.3415712
40
0.0713991
50
132.6499553
51
146.3125067
0
ARC
8
DEFAULT_255_1_234
10
16.0462854
20
-0.3543825
40
0.0887984
50
93.8142714
51
132.6365749
0
ARC
8
DEFAULT_255_1_234
10
16.0502847
20
-0.3830024
40
0.1176392
50
89.9476902
51
94.8305927
0
ARC
8
DEFAULT_255_1_234
10
16.0513459
20
-0.3603865
40
0.0950282
50
70.9376387
51
90.5750546
0
ARC
8
DEFAULT_255_1_234
10
16.0543808
20
-0.3491369
40
0.0834082
50
46.0805399
51
70.3842391
0
ARC
8
DEFAULT_255_1_234
10
16.0597191
20
-0.343329
40
0.0755219
50
15.8514865
51
45.9414755
0
ARC
8
DEFAULT_255_1_234
10
16.0217651
20
-0.3550719
40
0.115244
50
3.1292529
51
16.3135479
0
ARC
8
DEFAULT_255_1_234
10
15.9815951
20
-0.358402
40
0.1555398
50
359.9524064
51
3.5463789
0
ARC
8
DEFAULT_255_1_234
10
16.0034208
20
-0.3595068
40
0.1337177
50
349.0490813
51
0.4180302
0
ARC
8
DEFAULT_255_1_234
10
16.0511607
20
-0.3691405
40
0.0850178
50
329.7587791
51
349.311372
0
ARC
8
DEFAULT_255_1_234
10
16.0662518
20
-0.3772374
40
0.0679053
50
312.6244131
51
329.247817
0
ARC
8
DEFAULT_255_1_234
10
16.0539381
20
-0.3637999
40
0.0861314
50
272.9227855
51
312.598345
0
ARC
8
DEFAULT_255_1_234
10
16.0504627
20
-0.336938
40
0.113155
50
269.9642935
51
273.9868025
0
LINE
8
DEFAULT_255_1_234
10
15.5925831
20
0.1803984
11
15.4713038
21
0.1803984
0
LINE
8
DEFAULT_255_1_234
10
15.4713038
20
0.1803984
11
15.4713038
21
0.2920396
0
LINE
8
DEFAULT_255_1_234
10
15.2656913
20
0.1016874
11
15.2656913
21
-0.0468998
0
LINE
8
DEFAULT_255_1_234
10
15.8198812
20
-0.0573411
11
15.8198812
21
0.0920493
0
LINE
8
DEFAULT_255_1_234
10
15.5925831
20
0.2920396
11
15.5925831
21
0.1803984
0
ARC
8
DEFAULT_255_1_234
10
15.1320287
20
0.2891262
40
0.3392876
50
0.4919872
51
11.8951556
0
ARC
8
DEFAULT_255_1_234
10
15.2422298
20
0.3132524
40
0.2264817
50
11.6691735
51
31.2943132
0
ARC
8
DEFAULT_255_1_234
10
15.2733696
20
0.3302734
40
0.1910381
50
31.7833094
51
41.7545298
0
ARC
8
DEFAULT_255_1_234
10
15.2835252
20
0.339431
40
0.1773635
50
41.7323931
51
84.2802411
0
ARC
8
DEFAULT_255_1_234
10
15.2710278
20
0.2667935
40
0.2509385
50
83.0937916
51
90.1181479
0
ARC
8
DEFAULT_255_1_234
10
15.2662614
20
0.220672
40
0.2970898
50
89.1805295
51
105.0453146
0
ARC
8
DEFAULT_255_1_234
10
15.2270008
20
0.3552557
40
0.1569564
50
103.9577229
51
167.6713066
0
ARC
8
DEFAULT_255_1_234
10
15.3655051
20
0.3166086
40
0.3006298
50
166.1116566
51
180.7026153
0
ARC
8
DEFAULT_255_1_234
10
15.3381455
20
0.3106924
40
0.2732568
50
179.5324876
51
193.531937
0
ARC
8
DEFAULT_255_1_234
10
15.2582116
20
0.2906368
40
0.1908508
50
193.2931773
51
223.5619022
0
ARC
8
DEFAULT_255_1_234
10
15.2522625
20
0.2861857
40
0.1834746
50
223.8349307
51
263.5344437
0
ARC
8
DEFAULT_255_1_234
10
15.2650787
20
0.35849
40
0.2568033
50
262.5096846
51
270.1366907
0
ARC
8
DEFAULT_255_1_234
10
15.2616378
20
0.2633794
40
0.3103056
50
245.3484492
51
270.7484736
0
ARC
8
DEFAULT_255_1_234
10
15.2645154
20
0.2584883
40
0.3070957
50
221.5744599
51
244.4798489
0
ARC
8
DEFAULT_255_1_234
10
15.296169
20
0.289803
40
0.3515643
50
186.9875458
51
221.9690667
0
ARC
8
DEFAULT_255_1_234
10
15.4207364
20
0.311751
40
0.4779224
50
179.8596053
51
187.7825159
0
ARC
8
DEFAULT_255_1_234
10
15.4469384
20
0.3165573
40
0.5041361
50
168.3655447
51
180.4131539
0
ARC
8
DEFAULT_255_1_234
10
15.2810113
20
0.3523491
40
0.3344039
50
146.6229102
51
168.638727
0
ARC
8
DEFAULT_255_1_234
10
15.2434195
20
0.3738435
40
0.2912001
50
137.0253525
51
146.0854072
0
ARC
8
DEFAULT_255_1_234
10
15.2394777
20
0.3758215
40
0.2869704
50
100.9208013
51
136.7778124
0
ARC
8
DEFAULT_255_1_234
10
15.2710143
20
0.2394281
40
0.426899
50
89.6364486
51
101.6087304
0
ARC
8
DEFAULT_255_1_234
10
15.2725248
20
0.4229125
40
0.243409
50
62.3549906
51
89.7179418
0
ARC
8
DEFAULT_255_1_234
10
15.2416858
20
0.3578727
40
0.3153459
50
55.2333722
51
62.8745602
0
ARC
8
DEFAULT_255_1_234
10
15.2523172
20
0.373135
40
0.2967456
50
22.9802137
51
55.2392345
0
ARC
8
DEFAULT_255_1_234
10
15.1989137
20
0.3456724
40
0.3566604
50
22.5402179
51
23.6924929
0
ARC
8
DEFAULT_255_1_234
10
15.8443909
20
0.384932
40
0.3307468
50
147.6435486
51
162.8625112
0
ARC
8
DEFAULT_255_1_234
10
15.7869451
20
0.420382
40
0.2632492
50
126.7248896
51
147.4697979
0
ARC
8
DEFAULT_255_1_234
10
15.785678
20
0.4192452
40
0.2634081
50
98.0545065
51
126.356114
0
ARC
8
DEFAULT_255_1_234
10
15.8011826
20
0.3329638
40
0.3510261
50
89.8320645
51
98.5869982
0
ARC
8
DEFAULT_255_1_234
10
15.8059899
20
0.2954414
40
0.3885653
50
73.9829931
51
90.5571613
0
ARC
8
DEFAULT_255_1_234
10
15.8302562
20
0.3840611
40
0.2966924
50
41.6359546
51
73.7651759
0
ARC
8
DEFAULT_255_1_234
10
15.7875898
20
0.346218
40
0.3537231
50
9.7829875
51
41.6255694
0
ARC
8
DEFAULT_255_1_234
10
15.643872
20
0.3160956
40
0.5004971
50
359.7286406
51
10.3856417
0
ARC
8
DEFAULT_255_1_234
10
15.6480004
20
0.3099029
40
0.4963778
50
346.6828919
51
0.4412052
0
ARC
8
DEFAULT_255_1_234
10
15.7864606
20
0.2760325
40
0.3538406
50
319.4223008
51
346.8556159
0
ARC
8
DEFAULT_255_1_234
10
15.8331264
20
0.2345718
40
0.2914296
50
271.818294
51
319.6455059
0
ARC
8
DEFAULT_255_1_234
10
15.8200504
20
0.3385674
40
0.3959084
50
269.9755256
51
273.2323064
0
ARC
8
DEFAULT_255_1_234
10
15.8220963
20
0.321342
40
0.2293034
50
269.4465117
51
286.2869258
0
ARC
8
DEFAULT_255_1_234
10
15.8354349
20
0.2725828
40
0.1787621
50
286.5661473
51
317.705904
0
ARC
8
DEFAULT_255_1_234
10
15.8170845
20
0.2889923
40
0.2033784
50
317.7652068
51
347.8762805
0
ARC
8
DEFAULT_255_1_234
10
15.7227844
20
0.3114893
40
0.3003081
50
347.4584385
51
0.426602
0
ARC
8
DEFAULT_255_1_234
10
15.6938004
20
0.3160459
40
0.329292
50
359.5962073
51
10.8789248
0
ARC
8
DEFAULT_255_1_234
10
15.8084315
20
0.3389988
40
0.2123908
50
10.6346389
51
29.8595945
0
ARC
8
DEFAULT_255_1_234
10
15.8446788
20
0.3580894
40
0.171457
50
30.3576302
51
44.5517981
0
ARC
8
DEFAULT_255_1_234
10
15.8386081
20
0.3497955
40
0.1816095
50
45.0728369
51
75.0431014
0
ARC
8
DEFAULT_255_1_234
10
15.8117159
20
0.2574769
40
0.2777492
50
74.5986631
51
87.9269593
0
ARC
8
DEFAULT_255_1_234
10
15.8055724
20
0.1679095
40
0.3674917
50
87.4748886
51
90.0231117
0
ARC
8
DEFAULT_255_1_234
10
15.8031321
20
0.2702205
40
0.2651907
50
89.5047933
51
103.4239635
0
ARC
8
DEFAULT_255_1_234
10
15.7809522
20
0.3568848
40
0.1757509
50
102.9498199
51
138.7551375
0
ARC
8
DEFAULT_255_1_234
10
15.80586
20
0.3386582
40
0.2065134
50
139.5088623
51
162.1836453
0
ARC
8
DEFAULT_255_1_234
10
15.9120709
20
0.3028735
40
0.3185836
50
161.9010081
51
174.3554254
0
ARC
8
DEFAULT_255_1_234
10
16.0481674
20
0.2867367
40
0.4556151
50
174.0193428
51
179.333121
0
LINE
8
DEFAULT_255_1_234
10
14.9588789
20
1.0815594
11
16.0022017
21
1.0815594
0
LINE
8
DEFAULT_255_1_234
10
16.0022017
20
1.0815594
11
16.0022017
21
1.6357494
0
LINE
8
DEFAULT_255_1_234
10
16.0022017
20
1.6357494
11
16.1283
21
1.6357494
0
LINE
8
DEFAULT_255_1_234
10
16.1283
20
1.6357494
11
16.1283
21
0.9265469
0
LINE
8
DEFAULT_255_1_234
10
16.1283
20
0.9265469
11
14.9588789
21
0.9265469
0
LINE
8
DEFAULT_255_1_234
10
14.9588789
20
0.9265469
11
14.9588789
21
1.0815594
0
ARC
8
DEFAULT_255_2_778
10
12.2697941
20
5.0272011
40
0.4955782
50
179.5164954
51
201.3557171
0
ARC
8
DEFAULT_255_2_778
10
12.2977596
20
5.0592222
40
0.5336459
50
203.4647181
51
250.5289934
0
ARC
8
DEFAULT_255_2_778
10
12.4305271
20
5.3571542
40
0.8591842
50
248.8038996
51
270.3171866
0
ARC
8
DEFAULT_255_2_778
10
12.4443548
20
5.3246304
40
0.826697
50
269.3712835
51
297.2122532
0
ARC
8
DEFAULT_255_2_778
10
12.6055379
20
5.0304882
40
0.4914832
50
296.1821889
51
349.1753279
0
ARC
8
DEFAULT_255_2_778
10
12.5675002
20
5.0301586
40
0.5288348
50
349.9843955
51
0.1326676
0
ARC
8
DEFAULT_255_2_778
10
13.5918941
20
5.0272011
40
0.4955782
50
179.5164954
51
201.3557171
0
ARC
8
DEFAULT_255_2_778
10
13.6198596
20
5.0592222
40
0.5336459
50
203.4647181
51
250.5289934
0
ARC
8
DEFAULT_255_2_778
10
13.7526271
20
5.3571542
40
0.8591842
50
248.8038996
51
270.3171866
0
ARC
8
DEFAULT_255_2_778
10
13.7664548
20
5.3246304
40
0.826697
50
269.3712835
51
297.2122532
0
ARC
8
DEFAULT_255_2_778
10
13.9276379
20
5.0304882
40
0.4914832
50
296.1821889
51
349.1753279
0
ARC
8
DEFAULT_255_2_778
10
13.8896002
20
5.0301586
40
0.5288348
50
349.9843955
51
0.1326676
0
ARC
8
DEFAULT_255_2_778
10
14.9142999
20
5.0271947
40
0.4958841
50
179.5160492
51
201.3476773
0
ARC
8
DEFAULT_255_2_778
10
14.9421606
20
5.0592191
40
0.5338541
50
203.4608635
51
250.589307
0
ARC
8
DEFAULT_255_2_778
10
15.0746972
20
5.3571271
40
0.8592693
50
248.8555464
51
270.315515
0
LINE
8
DEFAULT_255_2_778
10
15.079429
20
4.4978706
11
15.0795335
21
4.4978706
0
ARC
8
DEFAULT_255_2_778
10
15.0885017
20
5.3246109
40
0.8267889
50
269.3784978
51
297.2192979
0
ARC
8
DEFAULT_255_2_778
10
15.2497122
20
5.0305274
40
0.4916136
50
296.1883435
51
349.1733795
0
ARC
8
DEFAULT_255_2_778
10
15.2118195
20
5.0301574
40
0.5288154
50
349.9839626
51
0.1328077
0
ARC
8
DEFAULT_255_2_778
10
16.2361941
20
5.0272011
40
0.4955782
50
179.5164954
51
201.3557171
0
ARC
8
DEFAULT_255_2_778
10
16.2641596
20
5.0592222
40
0.5336459
50
203.4647181
51
250.5289934
0
ARC
8
DEFAULT_255_2_778
10
16.3969271
20
5.3571542
40
0.8591842
50
248.8038996
51
270.3171866
0
ARC
8
DEFAULT_255_2_778
10
16.4107548
20
5.3246304
40
0.826697
50
269.3712835
51
297.2122532
0
ARC
8
DEFAULT_255_2_778
10
16.5719379
20
5.0304882
40
0.4914832
50
296.1821889
51
349.1753279
0
ARC
8
DEFAULT_255_2_778
10
16.5339002
20
5.0301586
40
0.5288348
50
349.9843955
51
0.1326676
0
ARC
8
DEFAULT_255_2_778
10
6.9807941
20
5.0272011
40
0.4955782
50
179.5164954
51
201.3557171
0
ARC
8
DEFAULT_255_2_778
10
7.0087596
20
5.0592222
40
0.5336459
50
203.4647181
51
250.5289934
0
ARC
8
DEFAULT_255_2_778
10
7.1415271
20
5.3571542
40
0.8591842
50
248.8038996
51
270.3171866
0
ARC
8
DEFAULT_255_2_778
10
7.1553548
20
5.3246304
40
0.826697
50
269.3712835
51
297.2122532
0
ARC
8
DEFAULT_255_2_778
10
7.3165379
20
5.0304882
40
0.4914832
50
296.1821889
51
349.1753279
0
ARC
8
DEFAULT_255_2_778
10
7.2785002
20
5.0301586
40
0.5288348
50
349.9843955
51
0.1326676
0
ARC
8
DEFAULT_255_2_778
10
8.3028941
20
5.0272011
40
0.4955782
50
179.5164954
51
201.3557171
0
ARC
8
DEFAULT_255_2_778
10
8.3308596
20
5.0592222
40
0.5336459
50
203.4647181
51
250.5289934
0
ARC
8
DEFAULT_255_2_778
10
8.4636271
20
5.3571542
40
0.8591842
50
248.8038996
51
270.3171866
0
ARC
8
DEFAULT_255_2_778
10
8.4774548
20
5.3246304
40
0.826697
50
269.3712835
51
297.2122532
0
ARC
8
DEFAULT_255_2_778
10
8.6386379
20
5.0304882
40
0.4914832
50
296.1821889
51
349.1753279
0
ARC
8
DEFAULT_255_2_778
10
8.6006002
20
5.0301586
40
0.5288348
50
349.9843955
51
0.1326676
0
ARC
8
DEFAULT_255_2_778
10
9.6253372
20
5.0271951
40
0.4959214
50
179.5161283
51
201.3460401
0
ARC
8
DEFAULT_255_2_778
10
9.6531447
20
5.0591907
40
0.5338306
50
203.458634
51
250.5872528
0
ARC
8
DEFAULT_255_2_778
10
9.7856482
20
5.3570047
40
0.8591469
50
248.8540199
51
270.315492
0
LINE
8
DEFAULT_255_2_778
10
9.790379
20
4.4978706
11
9.7904835
21
4.4978706
0
ARC
8
DEFAULT_255_2_778
10
9.7994498
20
5.3244975
40
0.8266755
50
269.3785407
51
297.2212008
0
ARC
8
DEFAULT_255_2_778
10
9.9606153
20
5.0305131
40
0.4916086
50
296.1909223
51
349.1749618
0
ARC
8
DEFAULT_255_2_778
10
9.9226684
20
5.0301596
40
0.5288666
50
349.9847022
51
0.1325573
0
ARC
8
DEFAULT_255_2_778
10
10.9470623
20
5.0272013
40
0.4955464
50
179.516479
51
201.3571773
0
ARC
8
DEFAULT_255_2_778
10
10.975076
20
5.0592515
40
0.5336702
50
203.4670111
51
250.5310311
0
ARC
8
DEFAULT_255_2_778
10
11.1078762
20
5.3572769
40
0.8593069
50
248.8054292
51
270.3172002
0
ARC
8
DEFAULT_255_2_778
10
11.1217066
20
5.3247438
40
0.8268104
50
269.3712412
51
297.2103509
0
ARC
8
DEFAULT_255_2_778
10
11.2829348
20
5.0305025
40
0.4914883
50
296.1796102
51
349.1737453
0
ARC
8
DEFAULT_255_2_778
10
11.2449513
20
5.0301564
40
0.5287836
50
349.9836559
51
0.132918
0
ARC
8
DEFAULT_255_2_778
10
12.2653319
20
2.6460627
40
0.495316
50
158.6385654
51
180.4834748
0
ARC
8
DEFAULT_255_2_778
10
12.2934726
20
2.6139442
40
0.5335852
50
109.4634048
51
156.5268319
0
ARC
8
DEFAULT_255_2_778
10
12.4263255
20
2.3157476
40
0.8593988
50
89.6827845
51
111.1904356
0
ARC
8
DEFAULT_255_2_778
10
12.440159
20
2.3482977
40
0.8268852
50
62.7947807
51
90.6288622
0
ARC
8
DEFAULT_255_2_778
10
12.6014648
20
2.6427246
40
0.4913637
50
10.8305685
51
63.8274418
0
ARC
8
DEFAULT_255_2_778
10
12.5635929
20
2.643107
40
0.5285422
50
359.8673249
51
10.0183894
0
ARC
8
DEFAULT_255_2_778
10
13.587382
20
2.6460651
40
0.4952662
50
158.6396934
51
180.4837968
0
ARC
8
DEFAULT_255_2_778
10
13.6154227
20
2.6139907
40
0.5334256
50
109.4595077
51
156.5277453
0
ARC
8
DEFAULT_255_2_778
10
13.748311
20
2.3156319
40
0.8594021
50
89.6821363
51
111.1866366
0
LINE
8
DEFAULT_255_2_778
10
13.7530788
20
3.1750207
11
13.7531835
21
3.1750206
0
ARC
8
DEFAULT_255_2_778
10
13.7621598
20
2.34792
40
0.8271493
50
62.7964627
51
90.6217959
0
ARC
8
DEFAULT_255_2_778
10
13.9236336
20
2.6426202
40
0.4913087
50
10.8397394
51
63.8332404
0
ARC
8
DEFAULT_255_2_778
10
13.8861021
20
2.6431055
40
0.528133
50
359.867393
51
10.0222725
0
ARC
8
DEFAULT_255_2_778
10
14.9095319
20
2.6460627
40
0.495316
50
158.6385654
51
180.4834748
0
ARC
8
DEFAULT_255_2_778
10
14.9376726
20
2.6139442
40
0.5335852
50
109.4634048
51
156.5268319
0
ARC
8
DEFAULT_255_2_778
10
15.0705255
20
2.3157476
40
0.8593988
50
89.6827845
51
111.1904356
0
ARC
8
DEFAULT_255_2_778
10
15.084359
20
2.3482977
40
0.8268852
50
62.7947807
51
90.6288622
0
ARC
8
DEFAULT_255_2_778
10
15.2456648
20
2.6427246
40
0.4913637
50
10.8305685
51
63.8274418
0
ARC
8
DEFAULT_255_2_778
10
15.2077929
20
2.643107
40
0.5285422
50
359.8673249
51
10.0183894
0
ARC
8
DEFAULT_255_2_778
10
16.2312377
20
2.6460591
40
0.4949218
50
158.6299555
51
180.4834467
0
ARC
8
DEFAULT_255_2_778
10
16.2592338
20
2.614123
40
0.5329886
50
109.5836756
51
156.5290755
0
ARC
8
DEFAULT_255_2_778
10
16.3925555
20
2.3157694
40
0.8591523
50
89.6780236
51
111.2915798
0
ARC
8
DEFAULT_255_2_778
10
16.406466
20
2.3477902
40
0.8271678
50
62.8053846
51
90.6291351
0
ARC
8
DEFAULT_255_2_778
10
16.5679555
20
2.6426447
40
0.4911839
50
10.8393957
51
63.8419237
0
ARC
8
DEFAULT_255_2_778
10
16.5303339
20
2.6431064
40
0.5281012
50
359.8672826
51
10.0225796
0
ARC
8
DEFAULT_255_2_778
10
6.9765319
20
2.6460627
40
0.495316
50
158.6385654
51
180.4834748
0
ARC
8
DEFAULT_255_2_778
10
7.0046726
20
2.6139442
40
0.5335852
50
109.4634048
51
156.5268319
0
ARC
8
DEFAULT_255_2_778
10
7.1375255
20
2.3157476
40
0.8593988
50
89.6827845
51
111.1904356
0
ARC
8
DEFAULT_255_2_778
10
7.151359
20
2.3482977
40
0.8268852
50
62.7947807
51
90.6288622
0
ARC
8
DEFAULT_255_2_778
10
7.3126648
20
2.6427246
40
0.4913637
50
10.8305685
51
63.8274418
0
ARC
8
DEFAULT_255_2_778
10
7.2747929
20
2.643107
40
0.5285422
50
359.8673249
51
10.0183894
0
ARC
8
DEFAULT_255_2_778
10
8.298582
20
2.6460651
40
0.4952662
50
158.6396934
51
180.4837968
0
ARC
8
DEFAULT_255_2_778
10
8.3266227
20
2.6139907
40
0.5334256
50
109.4595077
51
156.5277453
0
ARC
8
DEFAULT_255_2_778
10
8.459511
20
2.3156319
40
0.8594021
50
89.6821363
51
111.1866366
0
LINE
8
DEFAULT_255_2_778
10
8.4642788
20
3.1750207
11
8.4643835
21
3.1750206
0
ARC
8
DEFAULT_255_2_778
10
8.4733598
20
2.34792
40
0.8271493
50
62.7964627
51
90.6217959
0
ARC
8
DEFAULT_255_2_778
10
8.6348336
20
2.6426202
40
0.4913087
50
10.8397394
51
63.8332404
0
ARC
8
DEFAULT_255_2_778
10
8.5973021
20
2.6431055
40
0.528133
50
359.867393
51
10.0222725
0
ARC
8
DEFAULT_255_2_778
10
9.6207001
20
2.6460626
40
0.4952842
50
158.6371049
51
180.4834912
0
ARC
8
DEFAULT_255_2_778
10
9.648889
20
2.6139149
40
0.5336095
50
109.4613676
51
156.5245384
0
ARC
8
DEFAULT_255_2_778
10
9.7817746
20
2.3156249
40
0.8595215
50
89.6827709
51
111.1889064
0
ARC
8
DEFAULT_255_2_778
10
9.7956108
20
2.3481843
40
0.8269986
50
62.7966826
51
90.6289044
0
ARC
8
DEFAULT_255_2_778
10
9.9569616
20
2.6427103
40
0.4913687
50
10.8321516
51
63.8300202
0
ARC
8
DEFAULT_255_2_778
10
9.9191439
20
2.6431092
40
0.5284909
50
359.8670744
51
10.0191292
0
ARC
8
DEFAULT_255_2_778
10
10.9425377
20
2.6460591
40
0.4949218
50
158.6299555
51
180.4834467
0
ARC
8
DEFAULT_255_2_778
10
10.9705338
20
2.614123
40
0.5329886
50
109.5836756
51
156.5290755
0
ARC
8
DEFAULT_255_2_778
10
11.1038555
20
2.3157694
40
0.8591523
50
89.6780236
51
111.2915798
0
ARC
8
DEFAULT_255_2_778
10
11.117766
20
2.3477902
40
0.8271678
50
62.8053846
51
90.6291351
0
ARC
8
DEFAULT_255_2_778
10
11.2792555
20
2.6426447
40
0.4911839
50
10.8393957
51
63.8419237
0
ARC
8
DEFAULT_255_2_778
10
11.2416339
20
2.6431064
40
0.5281012
50
359.8672826
51
10.0225796
0
LINE
8
DEFAULT_255_2_778
10
11.7758335
20
10.4510831
11
11.7742335
21
5.0313831
0
LINE
8
DEFAULT_255_2_778
10
17.0627335
20
5.0313831
11
17.0645335
21
10.4510831
0
LINE
8
DEFAULT_255_2_778
10
6.4870335
20
10.4510831
11
6.4852335
21
5.0313831
0
LINE
8
DEFAULT_255_2_778
10
11.7758335
20
-2.7781169
11
11.7700335
21
2.6418831
0
LINE
8
DEFAULT_255_2_778
10
17.0584335
20
2.6418831
11
17.0645335
21
-2.7781169
0
LINE
8
DEFAULT_255_2_778
10
6.4870335
20
-2.7781169
11
6.4812335
21
2.6418831
0
ENDSEC
0
EOF