0
SECTION
2
HEADER
9
$MEASUREMENT
70
1
0
ENDSEC
0
SECTION
2
TABLES
0
TABLE
2
LTYPE
0
LTYPE
72
65
70
64
2
CONTINUOUS
3
______
73
0
40
0
0
ENDTAB
0
TABLE
2
LAYER
0
LAYER
2
DEFAULT_255_1_234
70
0
62
255
6
CONTINUOUS
0
LAYER
2
DEFAULT_255_2_778
70
0
62
255
6
CONTINUOUS
0
ENDTAB
0
ENDSEC
0
SECTION
2
ENTITIES
0
LINE
8
DEFAULT_255_1_234
10
7.0160567
20
6.8340137
11
8.1911
21
6.8340137
0
LINE
8
DEFAULT_255_1_234
10
8.1911
20
6.8340137
11
8.1911
21
6.6846234
0
LINE
8
DEFAULT_255_1_234
10
8.1911
20
6.6846234
11
7.2007867
21
6.6846234
0
LINE
8
DEFAULT_255_1_234
10
7.2007867
20
6.6846234
11
7.3108215
21
6.3850396
0
LINE
8
DEFAULT_255_1_234
10
7.3108215
20
6.3850396
11
7.1758883
21
6.3850396
0
LINE
8
DEFAULT_255_1_234
10
7.1758883
20
6.3850396
11
7.0160567
21
6.8107217
0
LINE
8
DEFAULT_255_1_234
10
7.0160567
20
6.8107217
11
7.0160567
21
6.8340137
0
LINE
8
DEFAULT_255_1_234
10
7.0216789
20
7.4628988
11
8.0650017
21
7.4628988
0
LINE
8
DEFAULT_255_1_234
10
8.0650017
20
7.4628988
11
8.0650017
21
8.0170888
0
LINE
8
DEFAULT_255_1_234
10
8.0650017
20
8.0170888
11
8.1911
21
8.0170888
0
LINE
8
DEFAULT_255_1_234
10
8.1911
20
8.0170888
11
8.1911
21
7.3078863
0
LINE
8
DEFAULT_255_1_234
10
8.1911
20
7.3078863
11
7.0216789
21
7.3078863
0
LINE
8
DEFAULT_255_1_234
10
7.0216789
20
7.3078863
11
7.0216789
21
7.4628988
0
LINE
8
DEFAULT_255_1_234
10
14.9540567
20
6.5590137
11
16.1291
21
6.5590137
0
LINE
8
DEFAULT_255_1_234
10
16.1291
20
6.5590137
11
16.1291
21
6.4096234
0
LINE
8
DEFAULT_255_1_234
10
16.1291
20
6.4096234
11
15.1387867
21
6.4096234
0
LINE
8
DEFAULT_255_1_234
10
15.1387867
20
6.4096234
11
15.2488215
21
6.1100396
0
LINE
8
DEFAULT_255_1_234
10
15.2488215
20
6.1100396
11
15.1138883
21
6.1100396
0
LINE
8
DEFAULT_255_1_234
10
15.1138883
20
6.1100396
11
14.9540567
21
6.5357217
0
LINE
8
DEFAULT_255_1_234
10
14.9540567
20
6.5357217
11
14.9540567
21
6.5590137
0
LINE
8
DEFAULT_255_1_234
10
14.9596789
20
7.9316378
11
16.1291
21
7.9316378
0
LINE
8
DEFAULT_255_1_234
10
16.1291
20
7.9316378
11
16.1291
21
7.7766252
0
LINE
8
DEFAULT_255_1_234
10
16.1291
20
7.7766252
11
15.227939
21
7.1878988
0
LINE
8
DEFAULT_255_1_234
10
15.227939
20
7.1878988
11
16.1291
21
7.1878988
0
LINE
8
DEFAULT_255_1_234
10
16.1291
20
7.1878988
11
16.1291
21
7.0328863
0
LINE
8
DEFAULT_255_1_234
10
16.1291
20
7.0328863
11
14.9596789
21
7.0328863
0
LINE
8
DEFAULT_255_1_234
10
14.9596789
20
7.0328863
11
14.9596789
21
7.1878988
0
LINE
8
DEFAULT_255_1_234
10
14.9596789
20
7.1878988
11
15.8648558
21
7.7782316
0
LINE
8
DEFAULT_255_1_234
10
15.8648558
20
7.7782316
11
14.9596789
21
7.7782316
0
LINE
8
DEFAULT_255_1_234
10
14.9596789
20
7.7782316
11
14.9596789
21
7.9316378
0
LINE
8
DEFAULT_255_1_234
10
5.4231208
20
-0.8438881
11
5.5444
21
-0.8438881
0
LINE
8
DEFAULT_255_1_234
10
5.5444
20
-0.8438881
11
5.5444
21
-1.610116
0
LINE
8
DEFAULT_255_1_234
10
5.5444
20
-1.610116
11
5.4375779
21
-1.610116
0
LINE
8
DEFAULT_255_1_234
10
5.4375779
20
-1.610116
11
4.9878005
21
-1.2053164
0
LINE
8
DEFAULT_255_1_234
10
4.7195405
20
-1.4840177
11
4.7195405
21
-1.6326048
0
LINE
8
DEFAULT_255_1_234
10
5.0833782
20
-1.1177704
11
5.4231208
21
-1.4310082
0
LINE
8
DEFAULT_255_1_234
10
5.4231208
20
-1.4310082
11
5.4231208
21
-0.8438881
0
ARC
8
DEFAULT_255_1_234
10
3.7948473
20
-2.554333
40
1.8008286
50
48.5132453
51
50.7828378
0
ARC
8
DEFAULT_255_1_234
10
4.2251574
20
-2.0256356
40
1.1191493
50
50.7372736
51
53.9737074
0
ARC
8
DEFAULT_255_1_234
10
4.5091639
20
-1.6336499
40
0.6350923
50
53.8961724
51
58.6421089
0
ARC
8
DEFAULT_255_1_234
10
4.6353969
20
-1.4289904
40
0.3946393
50
58.8299013
51
61.789948
0
ARC
8
DEFAULT_255_1_234
10
4.6868491
20
-1.3292726
40
0.2824501
50
61.4255242
51
82.9364833
0
ARC
8
DEFAULT_255_1_234
10
4.6899024
20
-1.3156225
40
0.2685315
50
83.2248685
51
90.0169286
0
ARC
8
DEFAULT_255_1_234
10
4.687605
20
-1.2946348
40
0.2475536
50
89.4866256
51
105.9339782
0
ARC
8
DEFAULT_255_1_234
10
4.6739714
20
-1.2439363
40
0.1950618
50
106.1714718
51
133.5284424
0
ARC
8
DEFAULT_255_1_234
10
4.6662427
20
-1.2362054
40
0.184134
50
133.4415429
51
173.1661404
0
ARC
8
DEFAULT_255_1_234
10
4.7399229
20
-1.2496136
40
0.258926
50
172.160215
51
180.1505798
0
ARC
8
DEFAULT_255_1_234
10
4.7936135
20
-1.2527709
40
0.3126255
50
179.5460705
51
192.5418777
0
ARC
8
DEFAULT_255_1_234
10
4.6905335
20
-1.2770623
40
0.2067346
50
192.1739365
51
219.2061916
0
ARC
8
DEFAULT_255_1_234
10
4.6780906
20
-1.2849551
40
0.1921118
50
219.7279328
51
225.7542026
0
ARC
8
DEFAULT_255_1_234
10
4.6877955
20
-1.2728023
40
0.2075944
50
226.175737
51
256.3674722
0
ARC
8
DEFAULT_255_1_234
10
4.7147818
20
-1.1721104
40
0.3118201
50
255.9092917
51
268.8683903
0
ARC
8
DEFAULT_255_1_234
10
4.7194821
20
-1.0856243
40
0.3983935
50
268.438168
51
270.0083905
0
ARC
8
DEFAULT_255_1_234
10
4.7155769
20
-1.2257641
40
0.4068601
50
253.2878735
51
270.5581814
0
ARC
8
DEFAULT_255_1_234
10
4.693516
20
-1.3059379
40
0.3237344
50
223.454115
51
252.9470031
0
ARC
8
DEFAULT_255_1_234
10
4.7125
20
-1.2880838
40
0.349795
50
190.7869394
51
223.4384016
0
ARC
8
DEFAULT_255_1_234
10
4.8673681
20
-1.2533066
40
0.5084616
50
179.6605301
51
191.3704185
0
ARC
8
DEFAULT_255_1_234
10
4.8612504
20
-1.2466727
40
0.502348
50
168.2171172
51
180.4130393
0
ARC
8
DEFAULT_255_1_234
10
4.6988363
20
-1.2111649
40
0.3361092
50
145.9268222
51
168.4888551
0
ARC
8
DEFAULT_255_1_234
10
4.6649676
20
-1.1915209
40
0.2970617
50
137.9292255
51
145.4054003
0
ARC
8
DEFAULT_255_1_234
10
4.6546498
20
-1.1813648
40
0.2825983
50
94.3347696
51
138.0560701
0
ARC
8
DEFAULT_255_1_234
10
4.6716399
20
-1.2909255
40
0.393225
50
89.925209
51
95.5967654
0
ARC
8
DEFAULT_255_1_234
10
4.6660184
20
-1.2480363
40
0.3503892
50
67.8914096
51
88.9967724
0
ARC
8
DEFAULT_255_1_234
10
4.5613294
20
-1.5193951
40
0.6412172
50
56.9135351
51
68.3505194
0
ARC
8
DEFAULT_255_1_234
10
4.3058716
20
-1.9179647
40
1.1146189
50
49.6472867
51
57.095818
0
ARC
8
DEFAULT_255_1_234
10
3.9897
20
-2.3012644
40
1.6114559
50
47.2586784
51
49.9046139
0
LINE
8
DEFAULT_255_1_234
10
4.3749789
20
-0.4929012
11
5.4183017
21
-0.4929012
0
LINE
8
DEFAULT_255_1_234
10
5.4183017
20
-0.4929012
11
5.4183017
21
0.0612888
0
LINE
8
DEFAULT_255_1_234
10
5.4183017
20
0.0612888
11
5.5444
21
0.0612888
0
LINE
8
DEFAULT_255_1_234
10
5.5444
20
0.0612888
11
5.5444
21
-0.6479137
0
LINE
8
DEFAULT_255_1_234
10
5.5444
20
-0.6479137
11
4.3749789
21
-0.6479137
0
LINE
8
DEFAULT_255_1_234
10
4.3749789
20
-0.6479137
11
4.3749789
21
-0.4929012
0
LINE
8
DEFAULT_255_1_234
10
10.7146208
20
-0.8558881
11
10.8359
21
-0.8558881
0
LINE
8
DEFAULT_255_1_234
10
10.8359
20
-0.8558881
11
10.8359
21
-1.622116
0
LINE
8
DEFAULT_255_1_234
10
10.8359
20
-1.622116
11
10.7290779
21
-1.622116
0
LINE
8
DEFAULT_255_1_234
10
10.7290779
20
-1.622116
11
10.2793005
21
-1.2173164
0
LINE
8
DEFAULT_255_1_234
10
10.0110405
20
-1.4960177
11
10.0110405
21
-1.6446048
0
LINE
8
DEFAULT_255_1_234
10
10.3748782
20
-1.1297704
11
10.7146208
21
-1.4430082
0
LINE
8
DEFAULT_255_1_234
10
10.7146208
20
-1.4430082
11
10.7146208
21
-0.8558881
0
ARC
8
DEFAULT_255_1_234
10
9.0863473
20
-2.566333
40
1.8008286
50
48.5132453
51
50.7828378
0
ARC
8
DEFAULT_255_1_234
10
9.5166574
20
-2.0376356
40
1.1191493
50
50.7372736
51
53.9737074
0
ARC
8
DEFAULT_255_1_234
10
9.8006639
20
-1.6456499
40
0.6350923
50
53.8961724
51
58.6421089
0
ARC
8
DEFAULT_255_1_234
10
9.9268969
20
-1.4409904
40
0.3946393
50
58.8299013
51
61.789948
0
ARC
8
DEFAULT_255_1_234
10
9.9783491
20
-1.3412726
40
0.2824501
50
61.4255242
51
82.9364833
0
ARC
8
DEFAULT_255_1_234
10
9.9814024
20
-1.3276225
40
0.2685315
50
83.2248685
51
90.0169286
0
ARC
8
DEFAULT_255_1_234
10
9.979105
20
-1.3066348
40
0.2475536
50
89.4866256
51
105.9339782
0
ARC
8
DEFAULT_255_1_234
10
9.9654714
20
-1.2559363
40
0.1950618
50
106.1714718
51
133.5284424
0
ARC
8
DEFAULT_255_1_234
10
9.9577427
20
-1.2482054
40
0.184134
50
133.4415429
51
173.1661404
0
ARC
8
DEFAULT_255_1_234
10
10.0314229
20
-1.2616136
40
0.258926
50
172.160215
51
180.1505798
0
ARC
8
DEFAULT_255_1_234
10
10.0851135
20
-1.2647709
40
0.3126255
50
179.5460705
51
192.5418777
0
ARC
8
DEFAULT_255_1_234
10
9.9820335
20
-1.2890623
40
0.2067346
50
192.1739365
51
219.2061916
0
ARC
8
DEFAULT_255_1_234
10
9.9695906
20
-1.2969551
40
0.1921118
50
219.7279328
51
225.7542026
0
ARC
8
DEFAULT_255_1_234
10
9.9792955
20
-1.2848023
40
0.2075944
50
226.175737
51
256.3674722
0
ARC
8
DEFAULT_255_1_234
10
10.0062818
20
-1.1841104
40
0.3118201
50
255.9092917
51
268.8683903
0
ARC
8
DEFAULT_255_1_234
10
10.0109821
20
-1.0976243
40
0.3983935
50
268.438168
51
270.0083905
0
ARC
8
DEFAULT_255_1_234
10
10.0070769
20
-1.2377641
40
0.4068601
50
253.2878735
51
270.5581814
0
ARC
8
DEFAULT_255_1_234
10
9.985016
20
-1.3179379
40
0.3237344
50
223.454115
51
252.9470031
0
ARC
8
DEFAULT_255_1_234
10
10.004
20
-1.3000838
40
0.349795
50
190.7869394
51
223.4384016
0
ARC
8
DEFAULT_255_1_234
10
10.1588681
20
-1.2653066
40
0.5084616
50
179.6605301
51
191.3704185
0
ARC
8
DEFAULT_255_1_234
10
10.1527504
20
-1.2586727
40
0.502348
50
168.2171172
51
180.4130393
0
ARC
8
DEFAULT_255_1_234
10
9.9903363
20
-1.2231649
40
0.3361092
50
145.9268222
51
168.4888551
0
ARC
8
DEFAULT_255_1_234
10
9.9564676
20
-1.2035209
40
0.2970617
50
137.9292255
51
145.4054003
0
ARC
8
DEFAULT_255_1_234
10
9.9461498
20
-1.1933648
40
0.2825983
50
94.3347696
51
138.0560701
0
ARC
8
DEFAULT_255_1_234
10
9.9631399
20
-1.3029255
40
0.393225
50
89.925209
51
95.5967654
0
ARC
8
DEFAULT_255_1_234
10
9.9575184
20
-1.2600363
40
0.3503892
50
67.8914096
51
88.9967724
0
ARC
8
DEFAULT_255_1_234
10
9.8528294
20
-1.5313951
40
0.6412172
50
56.9135351
51
68.3505194
0
ARC
8
DEFAULT_255_1_234
10
9.5973716
20
-1.9299647
40
1.1146189
50
49.6472867
51
57.095818
0
ARC
8
DEFAULT_255_1_234
10
9.2812
20
-2.3132644
40
1.6114559
50
47.2586784
51
49.9046139
0
LINE
8
DEFAULT_255_1_234
10
9.6664789
20
0.2388378
11
10.8359
21
0.2388378
0
LINE
8
DEFAULT_255_1_234
10
10.8359
20
0.2388378
11
10.8359
21
0.0838252
0
LINE
8
DEFAULT_255_1_234
10
10.8359
20
0.0838252
11
9.934739
21
-0.5049012
0
LINE
8
DEFAULT_255_1_234
10
9.934739
20
-0.5049012
11
10.8359
21
-0.5049012
0
LINE
8
DEFAULT_255_1_234
10
10.8359
20
-0.5049012
11
10.8359
21
-0.6599137
0
LINE
8
DEFAULT_255_1_234
10
10.8359
20
-0.6599137
11
9.6664789
21
-0.6599137
0
LINE
8
DEFAULT_255_1_234
10
9.6664789
20
-0.6599137
11
9.6664789
21
-0.5049012
0
LINE
8
DEFAULT_255_1_234
10
9.6664789
20
-0.5049012
11
10.5716558
21
0.0854316
0
LINE
8
DEFAULT_255_1_234
10
10.5716558
20
0.0854316
11
9.6664789
21
0.0854316
0
LINE
8
DEFAULT_255_1_234
10
9.6664789
20
0.0854316
11
9.6664789
21
0.2388378
0
LINE
8
DEFAULT_255_1_234
10
12.9467831
20
-1.3940622
11
12.8255038
21
-1.3940622
0
LINE
8
DEFAULT_255_1_234
10
12.8255038
20
-1.3940622
11
12.8255038
21
-1.282421
0
LINE
8
DEFAULT_255_1_234
10
12.6198913
20
-1.4727732
11
12.6198913
21
-1.6213604
0
LINE
8
DEFAULT_255_1_234
10
13.1740812
20
-1.6318017
11
13.1740812
21
-1.4824113
0
LINE
8
DEFAULT_255_1_234
10
12.9467831
20
-1.282421
11
12.9467831
21
-1.3940622
0
ARC
8
DEFAULT_255_1_234
10
12.4862287
20
-1.2853344
40
0.3392876
50
0.4919872
51
11.8951556
0
ARC
8
DEFAULT_255_1_234
10
12.5964298
20
-1.2612082
40
0.2264817
50
11.6691735
51
31.2943132
0
ARC
8
DEFAULT_255_1_234
10
12.6275696
20
-1.2441872
40
0.1910381
50
31.7833094
51
41.7545298
0
ARC
8
DEFAULT_255_1_234
10
12.6377252
20
-1.2350296
40
0.1773635
50
41.7323931
51
84.2802411
0
ARC
8
DEFAULT_255_1_234
10
12.6252278
20
-1.3076671
40
0.2509385
50
83.0937916
51
90.1181479
0
ARC
8
DEFAULT_255_1_234
10
12.6204614
20
-1.3537886
40
0.2970898
50
89.1805295
51
105.0453146
0
ARC
8
DEFAULT_255_1_234
10
12.5812008
20
-1.2192049
40
0.1569564
50
103.9577229
51
167.6713066
0
ARC
8
DEFAULT_255_1_234
10
12.7197051
20
-1.257852
40
0.3006298
50
166.1116566
51
180.7026153
0
ARC
8
DEFAULT_255_1_234
10
12.6923455
20
-1.2637682
40
0.2732568
50
179.5324876
51
193.531937
0
ARC
8
DEFAULT_255_1_234
10
12.6124116
20
-1.2838238
40
0.1908508
50
193.2931773
51
223.5619022
0
ARC
8
DEFAULT_255_1_234
10
12.6064625
20
-1.2882749
40
0.1834746
50
223.8349307
51
263.5344437
0
ARC
8
DEFAULT_255_1_234
10
12.6192787
20
-1.2159706
40
0.2568033
50
262.5096846
51
270.1366907
0
ARC
8
DEFAULT_255_1_234
10
12.6158378
20
-1.3110812
40
0.3103056
50
245.3484492
51
270.7484736
0
ARC
8
DEFAULT_255_1_234
10
12.6187154
20
-1.3159723
40
0.3070957
50
221.5744599
51
244.4798489
0
ARC
8
DEFAULT_255_1_234
10
12.650369
20
-1.2846576
40
0.3515643
50
186.9875458
51
221.9690667
0
ARC
8
DEFAULT_255_1_234
10
12.7749364
20
-1.2627096
40
0.4779224
50
179.8596053
51
187.7825159
0
ARC
8
DEFAULT_255_1_234
10
12.8011384
20
-1.2579033
40
0.5041361
50
168.3655447
51
180.4131539
0
ARC
8
DEFAULT_255_1_234
10
12.6352113
20
-1.2221115
40
0.3344039
50
146.6229102
51
168.638727
0
ARC
8
DEFAULT_255_1_234
10
12.5976195
20
-1.2006171
40
0.2912001
50
137.0253525
51
146.0854072
0
ARC
8
DEFAULT_255_1_234
10
12.5936777
20
-1.1986391
40
0.2869704
50
100.9208013
51
136.7778124
0
ARC
8
DEFAULT_255_1_234
10
12.6252143
20
-1.3350325
40
0.426899
50
89.6364486
51
101.6087304
0
ARC
8
DEFAULT_255_1_234
10
12.6267248
20
-1.1515481
40
0.243409
50
62.3549906
51
89.7179418
0
ARC
8
DEFAULT_255_1_234
10
12.5958858
20
-1.2165879
40
0.3153459
50
55.2333722
51
62.8745602
0
ARC
8
DEFAULT_255_1_234
10
12.6065172
20
-1.2013256
40
0.2967456
50
22.9802137
51
55.2392345
0
ARC
8
DEFAULT_255_1_234
10
12.5531137
20
-1.2287882
40
0.3566604
50
22.5402179
51
23.6924929
0
ARC
8
DEFAULT_255_1_234
10
13.1985909
20
-1.1895286
40
0.3307468
50
147.6435486
51
162.8625112
0
ARC
8
DEFAULT_255_1_234
10
13.1411451
20
-1.1540786
40
0.2632492
50
126.7248896
51
147.4697979
0
ARC
8
DEFAULT_255_1_234
10
13.139878
20
-1.1552153
40
0.2634081
50
98.0545065
51
126.356114
0
ARC
8
DEFAULT_255_1_234
10
13.1553826
20
-1.2414968
40
0.3510261
50
89.8320645
51
98.5869982
0
ARC
8
DEFAULT_255_1_234
10
13.1601899
20
-1.2790192
40
0.3885653
50
73.9829931
51
90.5571613
0
ARC
8
DEFAULT_255_1_234
10
13.1844562
20
-1.1903995
40
0.2966924
50
41.6359546
51
73.7651759
0
ARC
8
DEFAULT_255_1_234
10
13.1417898
20
-1.2282426
40
0.3537231
50
9.7829875
51
41.6255694
0
ARC
8
DEFAULT_255_1_234
10
12.998072
20
-1.2583649
40
0.5004971
50
359.7286406
51
10.3856417
0
ARC
8
DEFAULT_255_1_234
10
13.0022004
20
-1.2645577
40
0.4963778
50
346.6828919
51
0.4412052
0
ARC
8
DEFAULT_255_1_234
10
13.1406606
20
-1.2984281
40
0.3538406
50
319.4223008
51
346.8556159
0
ARC
8
DEFAULT_255_1_234
10
13.1873264
20
-1.3398888
40
0.2914296
50
271.818294
51
319.6455059
0
ARC
8
DEFAULT_255_1_234
10
13.1742504
20
-1.2358932
40
0.3959084
50
269.9755256
51
273.2323064
0
ARC
8
DEFAULT_255_1_234
10
13.1762963
20
-1.2531186
40
0.2293034
50
269.4465117
51
286.2869258
0
ARC
8
DEFAULT_255_1_234
10
13.1896349
20
-1.3018778
40
0.1787621
50
286.5661473
51
317.705904
0
ARC
8
DEFAULT_255_1_234
10
13.1712845
20
-1.2854683
40
0.2033784
50
317.7652068
51
347.8762805
0
ARC
8
DEFAULT_255_1_234
10
13.0769844
20
-1.2629713
40
0.3003081
50
347.4584385
51
0.426602
0
ARC
8
DEFAULT_255_1_234
10
13.0480004
20
-1.2584147
40
0.329292
50
359.5962073
51
10.8789248
0
ARC
8
DEFAULT_255_1_234
10
13.1626315
20
-1.2354618
40
0.2123908
50
10.6346389
51
29.8595945
0
ARC
8
DEFAULT_255_1_234
10
13.1988788
20
-1.2163711
40
0.171457
50
30.3576302
51
44.5517981
0
ARC
8
DEFAULT_255_1_234
10
13.1928081
20
-1.2246651
40
0.1816095
50
45.0728369
51
75.0431014
0
ARC
8
DEFAULT_255_1_234
10
13.1659159
20
-1.3169837
40
0.2777492
50
74.5986631
51
87.9269593
0
ARC
8
DEFAULT_255_1_234
10
13.1597724
20
-1.4065511
40
0.3674917
50
87.4748886
51
90.0231117
0
ARC
8
DEFAULT_255_1_234
10
13.1573321
20
-1.3042401
40
0.2651907
50
89.5047933
51
103.4239635
0
ARC
8
DEFAULT_255_1_234
10
13.1351522
20
-1.2175758
40
0.1757509
50
102.9498199
51
138.7551375
0
ARC
8
DEFAULT_255_1_234
10
13.16006
20
-1.2358024
40
0.2065134
50
139.5088623
51
162.1836453
0
ARC
8
DEFAULT_255_1_234
10
13.2662709
20
-1.2715871
40
0.3185836
50
161.9010081
51
174.3554254
0
ARC
8
DEFAULT_255_1_234
10
13.4023674
20
-1.2877239
40
0.4556151
50
174.0193428
51
179.333121
0
LINE
8
DEFAULT_255_1_234
10
12.3130789
20
-0.4929012
11
13.3564017
21
-0.4929012
0
LINE
8
DEFAULT_255_1_234
10
13.3564017
20
-0.4929012
11
13.3564017
21
0.0612888
0
LINE
8
DEFAULT_255_1_234
10
13.3564017
20
0.0612888
11
13.4825
21
0.0612888
0
LINE
8
DEFAULT_255_1_234
10
13.4825
20
0.0612888
11
13.4825
21
-0.6479137
0
LINE
8
DEFAULT_255_1_234
10
13.4825
20
-0.6479137
11
12.3130789
21
-0.6479137
0
LINE
8
DEFAULT_255_1_234
10
12.3130789
20
-0.6479137
11
12.3130789
21
-0.4929012
0
LINE
8
DEFAULT_255_1_234
10
18.2381831
20
-1.4060622
11
18.1169038
21
-1.4060622
0
LINE
8
DEFAULT_255_1_234
10
18.1169038
20
-1.4060622
11
18.1169038
21
-1.294421
0
LINE
8
DEFAULT_255_1_234
10
17.9112913
20
-1.4847732
11
17.9112913
21
-1.6333604
0
LINE
8
DEFAULT_255_1_234
10
18.4654812
20
-1.6438017
11
18.4654812
21
-1.4944113
0
LINE
8
DEFAULT_255_1_234
10
18.2381831
20
-1.294421
11
18.2381831
21
-1.4060622
0
ARC
8
DEFAULT_255_1_234
10
17.7776287
20
-1.2973344
40
0.3392876
50
0.4919872
51
11.8951556
0
ARC
8
DEFAULT_255_1_234
10
17.8878298
20
-1.2732082
40
0.2264817
50
11.6691735
51
31.2943132
0
ARC
8
DEFAULT_255_1_234
10
17.9189696
20
-1.2561872
40
0.1910381
50
31.7833094
51
41.7545298
0
ARC
8
DEFAULT_255_1_234
10
17.9291252
20
-1.2470296
40
0.1773635
50
41.7323931
51
84.2802411
0
ARC
8
DEFAULT_255_1_234
10
17.9166278
20
-1.3196671
40
0.2509385
50
83.0937916
51
90.1181479
0
ARC
8
DEFAULT_255_1_234
10
17.9118614
20
-1.3657886
40
0.2970898
50
89.1805295
51
105.0453146
0
ARC
8
DEFAULT_255_1_234
10
17.8726008
20
-1.2312049
40
0.1569564
50
103.9577229
51
167.6713066
0
ARC
8
DEFAULT_255_1_234
10
18.0111051
20
-1.269852
40
0.3006298
50
166.1116566
51
180.7026153
0
ARC
8
DEFAULT_255_1_234
10
17.9837455
20
-1.2757682
40
0.2732568
50
179.5324876
51
193.531937
0
ARC
8
DEFAULT_255_1_234
10
17.9038116
20
-1.2958238
40
0.1908508
50
193.2931773
51
223.5619022
0
ARC
8
DEFAULT_255_1_234
10
17.8978625
20
-1.3002749
40
0.1834746
50
223.8349307
51
263.5344437
0
ARC
8
DEFAULT_255_1_234
10
17.9106787
20
-1.2279706
40
0.2568033
50
262.5096846
51
270.1366907
0
ARC
8
DEFAULT_255_1_234
10
17.9072378
20
-1.3230812
40
0.3103056
50
245.3484492
51
270.7484736
0
ARC
8
DEFAULT_255_1_234
10
17.9101154
20
-1.3279723
40
0.3070957
50
221.5744599
51
244.4798489
0
ARC
8
DEFAULT_255_1_234
10
17.941769
20
-1.2966576
40
0.3515643
50
186.9875458
51
221.9690667
0
ARC
8
DEFAULT_255_1_234
10
18.0663364
20
-1.2747096
40
0.4779224
50
179.8596053
51
187.7825159
0
ARC
8
DEFAULT_255_1_234
10
18.0925384
20
-1.2699033
40
0.5041361
50
168.3655447
51
180.4131539
0
ARC
8
DEFAULT_255_1_234
10
17.9266113
20
-1.2341115
40
0.3344039
50
146.6229102
51
168.638727
0
ARC
8
DEFAULT_255_1_234
10
17.8890195
20
-1.2126171
40
0.2912001
50
137.0253525
51
146.0854072
0
ARC
8
DEFAULT_255_1_234
10
17.8850777
20
-1.2106391
40
0.2869704
50
100.9208013
51
136.7778124
0
ARC
8
DEFAULT_255_1_234
10
17.9166143
20
-1.3470325
40
0.426899
50
89.6364486
51
101.6087304
0
ARC
8
DEFAULT_255_1_234
10
17.9181248
20
-1.1635481
40
0.243409
50
62.3549906
51
89.7179418
0
ARC
8
DEFAULT_255_1_234
10
17.8872858
20
-1.2285879
40
0.3153459
50
55.2333722
51
62.8745602
0
ARC
8
DEFAULT_255_1_234
10
17.8979172
20
-1.2133256
40
0.2967456
50
22.9802137
51
55.2392345
0
ARC
8
DEFAULT_255_1_234
10
17.8445137
20
-1.2407882
40
0.3566604
50
22.5402179
51
23.6924929
0
ARC
8
DEFAULT_255_1_234
10
18.4899909
20
-1.2015286
40
0.3307468
50
147.6435486
51
162.8625112
0
ARC
8
DEFAULT_255_1_234
10
18.4325451
20
-1.1660786
40
0.2632492
50
126.7248896
51
147.4697979
0
ARC
8
DEFAULT_255_1_234
10
18.431278
20
-1.1672153
40
0.2634081
50
98.0545065
51
126.356114
0
ARC
8
DEFAULT_255_1_234
10
18.4467826
20
-1.2534968
40
0.3510261
50
89.8320645
51
98.5869982
0
ARC
8
DEFAULT_255_1_234
10
18.4515899
20
-1.2910192
40
0.3885653
50
73.9829931
51
90.5571613
0
ARC
8
DEFAULT_255_1_234
10
18.4758562
20
-1.2023995
40
0.2966924
50
41.6359546
51
73.7651759
0
ARC
8
DEFAULT_255_1_234
10
18.4331898
20
-1.2402426
40
0.3537231
50
9.7829875
51
41.6255694
0
ARC
8
DEFAULT_255_1_234
10
18.289472
20
-1.2703649
40
0.5004971
50
359.7286406
51
10.3856417
0
ARC
8
DEFAULT_255_1_234
10
18.2936004
20
-1.2765577
40
0.4963778
50
346.6828919
51
0.4412052
0
ARC
8
DEFAULT_255_1_234
10
18.4320606
20
-1.3104281
40
0.3538406
50
319.4223008
51
346.8556159
0
ARC
8
DEFAULT_255_1_234
10
18.4787264
20
-1.3518888
40
0.2914296
50
271.818294
51
319.6455059
0
ARC
8
DEFAULT_255_1_234
10
18.4656504
20
-1.2478932
40
0.3959084
50
269.9755256
51
273.2323064
0
ARC
8
DEFAULT_255_1_234
10
18.4676963
20
-1.2651186
40
0.2293034
50
269.4465117
51
286.2869258
0
ARC
8
DEFAULT_255_1_234
10
18.4810349
20
-1.3138778
40
0.1787621
50
286.5661473
51
317.705904
0
ARC
8
DEFAULT_255_1_234
10
18.4626845
20
-1.2974683
40
0.2033784
50
317.7652068
51
347.8762805
0
ARC
8
DEFAULT_255_1_234
10
18.3683844
20
-1.2749713
40
0.3003081
50
347.4584385
51
0.426602
0
ARC
8
DEFAULT_255_1_234
10
18.3394004
20
-1.2704147
40
0.329292
50
359.5962073
51
10.8789248
0
ARC
8
DEFAULT_255_1_234
10
18.4540315
20
-1.2474618
40
0.2123908
50
10.6346389
51
29.8595945
0
ARC
8
DEFAULT_255_1_234
10
18.4902788
20
-1.2283711
40
0.171457
50
30.3576302
51
44.5517981
0
ARC
8
DEFAULT_255_1_234
10
18.4842081
20
-1.2366651
40
0.1816095
50
45.0728369
51
75.0431014
0
ARC
8
DEFAULT_255_1_234
10
18.4573159
20
-1.3289837
40
0.2777492
50
74.5986631
51
87.9269593
0
ARC
8
DEFAULT_255_1_234
10
18.4511724
20
-1.4185511
40
0.3674917
50
87.4748886
51
90.0231117
0
ARC
8
DEFAULT_255_1_234
10
18.4487321
20
-1.3162401
40
0.2651907
50
89.5047933
51
103.4239635
0
ARC
8
DEFAULT_255_1_234
10
18.4265522
20
-1.2295758
40
0.1757509
50
102.9498199
51
138.7551375
0
ARC
8
DEFAULT_255_1_234
10
18.45146
20
-1.2478024
40
0.2065134
50
139.5088623
51
162.1836453
0
ARC
8
DEFAULT_255_1_234
10
18.5576709
20
-1.2835871
40
0.3185836
50
161.9010081
51
174.3554254
0
ARC
8
DEFAULT_255_1_234
10
18.6937674
20
-1.2997239
40
0.4556151
50
174.0193428
51
179.333121
0
LINE
8
DEFAULT_255_1_234
10
17.6044789
20
0.2388378
11
18.7739
21
0.2388378
0
LINE
8
DEFAULT_255_1_234
10
18.7739
20
0.2388378
11
18.7739
21
0.0838252
0
LINE
8
DEFAULT_255_1_234
10
18.7739
20
0.0838252
11
17.872739
21
-0.5049012
0
LINE
8
DEFAULT_255_1_234
10
17.872739
20
-0.5049012
11
18.7739
21
-0.5049012
0
LINE
8
DEFAULT_255_1_234
10
18.7739
20
-0.5049012
11
18.7739
21
-0.6599137
0
LINE
8
DEFAULT_255_1_234
10
18.7739
20
-0.6599137
11
17.6044789
21
-0.6599137
0
LINE
8
DEFAULT_255_1_234
10
17.6044789
20
-0.6599137
11
17.6044789
21
-0.5049012
0
LINE
8
DEFAULT_255_1_234
10
17.6044789
20
-0.5049012
11
18.5096558
21
0.0854316
0
LINE
8
DEFAULT_255_1_234
10
18.5096558
20
0.0854316
11
17.6044789
21
0.0854316
0
LINE
8
DEFAULT_255_1_234
10
17.6044789
20
0.0854316
11
17.6044789
21
0.2388378
0
ARC
8
DEFAULT_255_2_778
10
9.6269426
20
4.8951794
40
0.4957102
50
179.5165935
51
201.3593863
0
ARC
8
DEFAULT_255_2_778
10
9.6550372
20
4.9272834
40
0.5339303
50
203.4702629
51
250.533887
0
ARC
8
DEFAULT_255_2_778
10
9.7879401
20
5.2255692
40
0.8598458
50
248.8076154
51
270.3171841
0
ARC
8
DEFAULT_255_2_778
10
9.80178
20
5.1930056
40
0.8273188
50
269.3711633
51
297.2076836
0
ARC
8
DEFAULT_255_2_778
10
9.9631403
20
4.8985009
40
0.4917026
50
296.1759161
51
349.1714995
0
ARC
8
DEFAULT_255_2_778
10
9.9251871
20
4.8981364
40
0.5289646
50
349.9826341
51
0.1327151
0
ARC
8
DEFAULT_255_2_778
10
10.9497878
20
4.8951755
40
0.4956553
50
179.5160966
51
201.3583153
0
ARC
8
DEFAULT_255_2_778
10
10.9777865
20
4.9272364
40
0.5337698
50
203.469328
51
250.5378449
0
ARC
8
DEFAULT_255_2_778
10
11.1107255
20
5.225683
40
0.8598472
50
248.8113797
51
270.3178513
0
LINE
8
DEFAULT_255_2_778
10
11.1154955
20
4.3658491
11
11.1156001
21
4.3658491
0
ARC
8
DEFAULT_255_2_778
10
11.1245809
20
5.1933833
40
0.8275829
50
269.3782253
51
297.2060025
0
ARC
8
DEFAULT_255_2_778
10
11.2861082
20
4.8986059
40
0.4916485
50
296.1701866
51
349.1622869
0
ARC
8
DEFAULT_255_2_778
10
11.2484963
20
4.898138
40
0.5285553
50
349.9787541
51
0.132647
0
ARC
8
DEFAULT_255_2_778
10
12.2727426
20
4.8951794
40
0.4957102
50
179.5165935
51
201.3593863
0
ARC
8
DEFAULT_255_2_778
10
12.3008372
20
4.9272834
40
0.5339303
50
203.4702629
51
250.533887
0
ARC
8
DEFAULT_255_2_778
10
12.4337401
20
5.2255692
40
0.8598458
50
248.8076154
51
270.3171841
0
ARC
8
DEFAULT_255_2_778
10
12.44758
20
5.1930056
40
0.8273188
50
269.3711633
51
297.2076836
0
ARC
8
DEFAULT_255_2_778
10
12.6089403
20
4.8985009
40
0.4917026
50
296.1759161
51
349.1714995
0
ARC
8
DEFAULT_255_2_778
10
12.5709871
20
4.8981364
40
0.5289646
50
349.9826341
51
0.1327151
0
ARC
8
DEFAULT_255_2_778
10
13.5952182
20
4.8951832
40
0.4952857
50
179.5166232
51
201.3693984
0
ARC
8
DEFAULT_255_2_778
10
13.6232125
20
4.9271315
40
0.5333551
50
203.4701709
51
250.4157629
0
ARC
8
DEFAULT_255_2_778
10
13.7566195
20
5.2256687
40
0.8597207
50
248.7079464
51
270.3219386
0
ARC
8
DEFAULT_255_2_778
10
13.7705361
20
5.1936404
40
0.8277286
50
269.3710482
51
297.1929475
0
ARC
8
DEFAULT_255_2_778
10
13.9321216
20
4.8985987
40
0.491535
50
296.1560147
51
349.1602687
0
ARC
8
DEFAULT_255_2_778
10
13.8944556
20
4.8981379
40
0.528496
50
349.9773142
51
0.1326685
0
ARC
8
DEFAULT_255_2_778
10
14.91825
20
4.8951831
40
0.4953175
50
179.5166395
51
201.3679384
0
ARC
8
DEFAULT_255_2_778
10
14.9461968
20
4.9271031
40
0.5333318
50
203.4679363
51
250.4136922
0
ARC
8
DEFAULT_255_2_778
10
15.0795705
20
5.2255468
40
0.8595988
50
248.7064205
51
270.3219157
0
ARC
8
DEFAULT_255_2_778
10
15.0934859
20
5.1935163
40
0.8276045
50
269.370973
51
297.1970588
0
ARC
8
DEFAULT_255_2_778
10
15.2550308
20
4.8985811
40
0.4915232
50
296.1614541
51
349.1626507
0
ARC
8
DEFAULT_255_2_778
10
15.2173281
20
4.898137
40
0.5285235
50
349.9784472
51
0.1327573
0
ARC
8
DEFAULT_255_2_778
10
16.2415426
20
4.8951794
40
0.4957102
50
179.5165935
51
201.3593863
0
ARC
8
DEFAULT_255_2_778
10
16.2696372
20
4.9272834
40
0.5339303
50
203.4702629
51
250.533887
0
ARC
8
DEFAULT_255_2_778
10
16.4025401
20
5.2255692
40
0.8598458
50
248.8076154
51
270.3171841
0
ARC
8
DEFAULT_255_2_778
10
16.41638
20
5.1930056
40
0.8273188
50
269.3711633
51
297.2076836
0
ARC
8
DEFAULT_255_2_778
10
16.5777403
20
4.8985009
40
0.4917026
50
296.1759161
51
349.1714995
0
ARC
8
DEFAULT_255_2_778
10
16.5397871
20
4.8981364
40
0.5289646
50
349.9826341
51
0.1327151
0
LINE
8
DEFAULT_255_2_778
10
9.1312501
20
10.3190616
11
9.1312501
21
4.8993616
0
LINE
8
DEFAULT_255_2_778
10
17.0687501
20
4.8993616
11
17.0687501
21
10.3190616
0
ARC
8
DEFAULT_255_2_778
10
14.9140666
20
2.5136087
40
0.4953175
50
158.6320616
51
180.4833605
0
ARC
8
DEFAULT_255_2_778
10
14.9420135
20
2.4816887
40
0.5333318
50
109.5863078
51
156.5320637
0
ARC
8
DEFAULT_255_2_778
10
15.0753871
20
2.1832449
40
0.8595988
50
89.6780843
51
111.2935795
0
ARC
8
DEFAULT_255_2_778
10
15.0893025
20
2.2152755
40
0.8276045
50
62.8029412
51
90.629027
0
ARC
8
DEFAULT_255_2_778
10
15.2508474
20
2.5102107
40
0.4915232
50
10.8373493
51
63.8385459
0
ARC
8
DEFAULT_255_2_778
10
15.2131447
20
2.5106547
40
0.5285235
50
359.8672427
51
10.0215528
0
ARC
8
DEFAULT_255_2_778
10
16.2369666
20
2.5136087
40
0.4953175
50
158.6320616
51
180.4833605
0
ARC
8
DEFAULT_255_2_778
10
16.2649135
20
2.4816887
40
0.5333318
50
109.5863078
51
156.5320637
0
ARC
8
DEFAULT_255_2_778
10
16.3982871
20
2.1832449
40
0.8595988
50
89.6780843
51
111.2935795
0
ARC
8
DEFAULT_255_2_778
10
16.4122025
20
2.2152755
40
0.8276045
50
62.8029412
51
90.629027
0
ARC
8
DEFAULT_255_2_778
10
16.5737474
20
2.5102107
40
0.4915232
50
10.8373493
51
63.8385459
0
ARC
8
DEFAULT_255_2_778
10
16.5360447
20
2.5106547
40
0.5285235
50
359.8672427
51
10.0215528
0
ARC
8
DEFAULT_255_2_778
10
17.5598666
20
2.5136087
40
0.4953175
50
158.6320616
51
180.4833605
0
ARC
8
DEFAULT_255_2_778
10
17.5878135
20
2.4816887
40
0.5333318
50
109.5863078
51
156.5320637
0
ARC
8
DEFAULT_255_2_778
10
17.7211871
20
2.1832449
40
0.8595988
50
89.6780843
51
111.2935795
0
ARC
8
DEFAULT_255_2_778
10
17.7351025
20
2.2152755
40
0.8276045
50
62.8029412
51
90.629027
0
ARC
8
DEFAULT_255_2_778
10
17.8966474
20
2.5102107
40
0.4915232
50
10.8373493
51
63.8385459
0
ARC
8
DEFAULT_255_2_778
10
17.8589447
20
2.5106547
40
0.5285235
50
359.8672427
51
10.0215528
0
ARC
8
DEFAULT_255_2_778
10
18.8827349
20
2.5136086
40
0.4952857
50
158.6306016
51
180.4833768
0
ARC
8
DEFAULT_255_2_778
10
18.9107291
20
2.4816603
40
0.5333551
50
109.5842371
51
156.5298291
0
ARC
8
DEFAULT_255_2_778
10
19.0441361
20
2.183123
40
0.8597207
50
89.6780614
51
111.2920536
0
ARC
8
DEFAULT_255_2_778
10
19.0580528
20
2.2151514
40
0.8277286
50
62.8070525
51
90.6289518
0
ARC
8
DEFAULT_255_2_778
10
19.2196383
20
2.510193
40
0.491535
50
10.8397313
51
63.8439853
0
ARC
8
DEFAULT_255_2_778
10
19.1819722
20
2.5106539
40
0.528496
50
359.8673315
51
10.0226858
0
LINE
8
DEFAULT_255_2_778
10
14.4187667
20
-2.9100699
11
14.4187667
21
2.5094301
0
LINE
8
DEFAULT_255_2_778
10
19.7104667
20
2.5094301
11
19.7104667
21
-2.9100699
0
ARC
8
DEFAULT_255_2_778
10
6.9765666
20
2.5136087
40
0.4953175
50
158.6320616
51
180.4833605
0
ARC
8
DEFAULT_255_2_778
10
7.0045135
20
2.4816887
40
0.5333318
50
109.5863078
51
156.5320637
0
ARC
8
DEFAULT_255_2_778
10
7.1378871
20
2.1832449
40
0.8595988
50
89.6780843
51
111.2935795
0
ARC
8
DEFAULT_255_2_778
10
7.1518025
20
2.2152755
40
0.8276045
50
62.8029412
51
90.629027
0
ARC
8
DEFAULT_255_2_778
10
7.3133474
20
2.5102107
40
0.4915232
50
10.8373493
51
63.8385459
0
ARC
8
DEFAULT_255_2_778
10
7.2756447
20
2.5106547
40
0.5285235
50
359.8672427
51
10.0215528
0
ARC
8
DEFAULT_255_2_778
10
8.2994666
20
2.5136087
40
0.4953175
50
158.6320616
51
180.4833605
0
ARC
8
DEFAULT_255_2_778
10
8.3274135
20
2.4816887
40
0.5333318
50
109.5863078
51
156.5320637
0
ARC
8
DEFAULT_255_2_778
10
8.4607871
20
2.1832449
40
0.8595988
50
89.6780843
51
111.2935795
0
ARC
8
DEFAULT_255_2_778
10
8.4747025
20
2.2152755
40
0.8276045
50
62.8029412
51
90.629027
0
ARC
8
DEFAULT_255_2_778
10
8.6362474
20
2.5102107
40
0.4915232
50
10.8373493
51
63.8385459
0
ARC
8
DEFAULT_255_2_778
10
8.5985447
20
2.5106547
40
0.5285235
50
359.8672427
51
10.0215528
0
ARC
8
DEFAULT_255_2_778
10
9.6223666
20
2.5136087
40
0.4953175
50
158.6320616
51
180.4833605
0
ARC
8
DEFAULT_255_2_778
10
9.6503135
20
2.4816887
40
0.5333318
50
109.5863078
51
156.5320637
0
ARC
8
DEFAULT_255_2_778
10
9.7836871
20
2.1832449
40
0.8595988
50
89.6780843
51
111.2935795
0
ARC
8
DEFAULT_255_2_778
10
9.7976025
20
2.2152755
40
0.8276045
50
62.8029412
51
90.629027
0
ARC
8
DEFAULT_255_2_778
10
9.9591474
20
2.5102107
40
0.4915232
50
10.8373493
51
63.8385459
0
ARC
8
DEFAULT_255_2_778
10
9.9214447
20
2.5106547
40
0.5285235
50
359.8672427
51
10.0215528
0
ARC
8
DEFAULT_255_2_778
10
10.9452349
20
2.5136086
40
0.4952857
50
158.6306016
51
180.4833768
0
ARC
8
DEFAULT_255_2_778
10
10.9732291
20
2.4816603
40
0.5333551
50
109.5842371
51
156.5298291
0
ARC
8
DEFAULT_255_2_778
10
11.1066361
20
2.183123
40
0.8597207
50
89.6780614
51
111.2920536
0
ARC
8
DEFAULT_255_2_778
10
11.1205528
20
2.2151514
40
0.8277286
50
62.8070525
51
90.6289518
0
ARC
8
DEFAULT_255_2_778
10
11.2821383
20
2.510193
40
0.491535
50
10.8397313
51
63.8439853
0
ARC
8
DEFAULT_255_2_778
10
11.2444722
20
2.5106539
40
0.528496
50
359.8673315
51
10.0226858
0
LINE
8
DEFAULT_255_2_778
10
6.4812667
20
-2.9100699
11
6.4812667
21
2.5094301
0
LINE
8
DEFAULT_255_2_778
10
11.7729667
20
2.5094301
11
11.7729667
21
-2.9100699
0
ENDSEC
0
EOF