0
SECTION
2
HEADER
9
$MEASUREMENT
70
1
0
ENDSEC
0
SECTION
2
TABLES
0
TABLE
2
LTYPE
0
LTYPE
72
65
70
64
2
CONTINUOUS
3
______
73
0
40
0
0
ENDTAB
0
TABLE
2
LAYER
0
LAYER
2
DEFAULT_255_1_234
70
0
62
255
6
CONTINUOUS
0
LAYER
2
DEFAULT_255_2_778
70
0
62
255
6
CONTINUOUS
0
ENDTAB
0
ENDSEC
0
SECTION
2
ENTITIES
0
LINE
8
DEFAULT_255_1_234
10
5.9641229
20
16.6393629
11
6.0870085
21
16.6401661
0
LINE
8
DEFAULT_255_1_234
10
5.3071268
20
16.3678901
11
5.1778158
21
16.3662838
0
LINE
8
DEFAULT_255_1_234
10
5.8034882
20
16.4714996
11
5.8267802
21
16.4698932
0
ARC
8
DEFAULT_255_1_234
10
5.7322683
20
16.6369082
40
0.3547552
50
342.4850674
51
0.5261752
0
ARC
8
DEFAULT_255_1_234
10
5.7857105
20
16.6222422
40
0.2993842
50
319.0739327
51
342.0836404
0
ARC
8
DEFAULT_255_1_234
10
5.81491
20
16.5918503
40
0.2574416
50
298.4091926
51
319.9273919
0
ARC
8
DEFAULT_255_1_234
10
5.8295699
20
16.5719272
40
0.2329679
50
269.313886
51
297.5690892
0
ARC
8
DEFAULT_255_1_234
10
5.8251701
20
16.6216485
40
0.2826772
50
247.621552
51
270.3263502
0
ARC
8
DEFAULT_255_1_234
10
5.8269488
20
16.6192506
40
0.2811486
50
238.5512048
51
247.1003244
0
ARC
8
DEFAULT_255_1_234
10
5.9238465
20
16.7796234
40
0.4685198
50
232.8710691
51
238.6745001
0
ARC
8
DEFAULT_255_1_234
10
6.0844268
20
16.9930519
40
0.7356102
50
228.705173
51
232.9334102
0
ARC
8
DEFAULT_255_1_234
10
6.4285365
20
17.3892619
40
1.2603853
50
228.7965706
51
228.8385774
0
ARC
8
DEFAULT_255_1_234
10
4.6258879
20
15.3329178
40
1.4742254
50
48.7311305
51
50.2502712
0
ARC
8
DEFAULT_255_1_234
10
5.017467
20
15.8045517
40
0.8612227
50
50.2159501
51
52.4078294
0
ARC
8
DEFAULT_255_1_234
10
5.266903
20
16.1293641
40
0.4516852
50
52.3442536
51
55.6489358
0
ARC
8
DEFAULT_255_1_234
10
5.4089841
20
16.338534
40
0.1988257
50
55.4399902
51
61.3981892
0
ARC
8
DEFAULT_255_1_234
10
5.4546534
20
16.4204416
40
0.1050545
50
61.881069
51
64.008811
0
ARC
8
DEFAULT_255_1_234
10
5.4379979
20
16.3861816
40
0.1431483
50
64.0260022
51
90.3030061
0
ARC
8
DEFAULT_255_1_234
10
5.4357747
20
16.3837222
40
0.1456132
50
89.4230754
51
105.7064346
0
ARC
8
DEFAULT_255_1_234
10
5.4255516
20
16.4209484
40
0.1070098
50
105.8328288
51
142.3200149
0
ARC
8
DEFAULT_255_1_234
10
5.4565265
20
16.3973525
40
0.1459478
50
142.4215759
51
164.196601
0
ARC
8
DEFAULT_255_1_234
10
5.5284089
20
16.3759432
40
0.220946
50
163.9311229
51
175.9946835
0
ARC
8
DEFAULT_255_1_234
10
5.6118235
20
16.3682872
40
0.304697
50
175.6541526
51
180.0746611
0
ARC
8
DEFAULT_255_1_234
10
5.5444209
20
16.3693217
40
0.3666178
50
165.1728297
51
180.4747827
0
ARC
8
DEFAULT_255_1_234
10
5.4604446
20
16.3910939
40
0.2798664
50
138.2317011
51
165.0822031
0
ARC
8
DEFAULT_255_1_234
10
5.4314608
20
16.4230576
40
0.2370007
50
91.9410761
51
139.3277015
0
ARC
8
DEFAULT_255_1_234
10
5.4371705
20
16.3681447
40
0.2921007
50
89.986193
51
92.6955755
0
ARC
8
DEFAULT_255_1_234
10
5.4375499
20
16.3812977
40
0.2789479
50
65.2115242
51
90.0634737
0
ARC
8
DEFAULT_255_1_234
10
5.413249
20
16.3306908
40
0.3350817
50
56.7890155
51
65.0672146
0
ARC
8
DEFAULT_255_1_234
10
5.3019004
20
16.1587263
40
0.5399465
50
51.1962736
51
56.8981192
0
ARC
8
DEFAULT_255_1_234
10
5.1342866
20
15.9484273
40
0.8088689
50
47.4370066
51
51.2787113
0
ARC
8
DEFAULT_255_1_234
10
6.0243556
20
16.9163954
40
0.5061164
50
227.3427993
51
232.8368305
0
ARC
8
DEFAULT_255_1_234
10
5.9036529
20
16.7561905
40
0.3055317
50
232.7266512
51
240.7131413
0
ARC
8
DEFAULT_255_1_234
10
5.8395651
20
16.6406296
40
0.1733921
50
240.5035975
51
253.0086217
0
ARC
8
DEFAULT_255_1_234
10
5.8215073
20
16.5848866
40
0.1148098
50
253.4976366
51
260.9702484
0
ARC
8
DEFAULT_255_1_234
10
5.8284834
20
16.5993131
40
0.1294311
50
269.2460356
51
293.33961
0
ARC
8
DEFAULT_255_1_234
10
5.8282385
20
16.594259
40
0.1249075
50
294.3612908
51
321.4853472
0
ARC
8
DEFAULT_255_1_234
10
5.7997595
20
16.6181742
40
0.1620861
50
321.1395944
51
347.0211866
0
ARC
8
DEFAULT_255_1_234
10
5.7263532
20
16.6364761
40
0.2377315
50
346.6963107
51
359.2920958
0
ARC
8
DEFAULT_255_1_234
10
5.6656417
20
16.6393514
40
0.2984814
50
358.8841791
51
0.002206
0
LINE
8
DEFAULT_255_1_234
10
7.0829441
20
16.6393629
11
7.2058297
21
16.6401661
0
LINE
8
DEFAULT_255_1_234
10
6.4259479
20
16.3678901
11
6.2966369
21
16.3662838
0
LINE
8
DEFAULT_255_1_234
10
6.9223093
20
16.4714996
11
6.9456014
21
16.4698932
0
ARC
8
DEFAULT_255_1_234
10
6.8510895
20
16.6369082
40
0.3547552
50
342.4850674
51
0.5261752
0
ARC
8
DEFAULT_255_1_234
10
6.9045316
20
16.6222422
40
0.2993842
50
319.0739327
51
342.0836404
0
ARC
8
DEFAULT_255_1_234
10
6.9337311
20
16.5918503
40
0.2574416
50
298.4091926
51
319.9273919
0
ARC
8
DEFAULT_255_1_234
10
6.9483911
20
16.5719272
40
0.2329679
50
269.313886
51
297.5690892
0
ARC
8
DEFAULT_255_1_234
10
6.9439913
20
16.6216485
40
0.2826772
50
247.621552
51
270.3263502
0
ARC
8
DEFAULT_255_1_234
10
6.9457699
20
16.6192506
40
0.2811486
50
238.5512048
51
247.1003244
0
ARC
8
DEFAULT_255_1_234
10
7.0426676
20
16.7796234
40
0.4685198
50
232.8710691
51
238.6745001
0
ARC
8
DEFAULT_255_1_234
10
7.2032479
20
16.9930519
40
0.7356102
50
228.705173
51
232.9334102
0
ARC
8
DEFAULT_255_1_234
10
7.5473577
20
17.3892619
40
1.2603853
50
228.7965706
51
228.8385774
0
ARC
8
DEFAULT_255_1_234
10
5.7447091
20
15.3329178
40
1.4742254
50
48.7311305
51
50.2502712
0
ARC
8
DEFAULT_255_1_234
10
6.1362881
20
15.8045517
40
0.8612227
50
50.2159501
51
52.4078294
0
ARC
8
DEFAULT_255_1_234
10
6.3857241
20
16.1293641
40
0.4516852
50
52.3442536
51
55.6489358
0
ARC
8
DEFAULT_255_1_234
10
6.5278053
20
16.338534
40
0.1988257
50
55.4399902
51
61.3981892
0
ARC
8
DEFAULT_255_1_234
10
6.5734745
20
16.4204416
40
0.1050545
50
61.881069
51
64.008811
0
ARC
8
DEFAULT_255_1_234
10
6.5568191
20
16.3861816
40
0.1431483
50
64.0260022
51
90.3030061
0
ARC
8
DEFAULT_255_1_234
10
6.5545959
20
16.3837222
40
0.1456132
50
89.4230754
51
105.7064346
0
ARC
8
DEFAULT_255_1_234
10
6.5443728
20
16.4209484
40
0.1070098
50
105.8328288
51
142.3200149
0
ARC
8
DEFAULT_255_1_234
10
6.5753477
20
16.3973525
40
0.1459478
50
142.4215759
51
164.196601
0
ARC
8
DEFAULT_255_1_234
10
6.6472301
20
16.3759432
40
0.220946
50
163.9311229
51
175.9946835
0
ARC
8
DEFAULT_255_1_234
10
6.7306446
20
16.3682872
40
0.304697
50
175.6541526
51
180.0746611
0
ARC
8
DEFAULT_255_1_234
10
6.6632421
20
16.3693217
40
0.3666178
50
165.1728297
51
180.4747827
0
ARC
8
DEFAULT_255_1_234
10
6.5792658
20
16.3910939
40
0.2798664
50
138.2317011
51
165.0822031
0
ARC
8
DEFAULT_255_1_234
10
6.550282
20
16.4230576
40
0.2370007
50
91.9410761
51
139.3277015
0
ARC
8
DEFAULT_255_1_234
10
6.5559917
20
16.3681447
40
0.2921007
50
89.986193
51
92.6955755
0
ARC
8
DEFAULT_255_1_234
10
6.5563711
20
16.3812977
40
0.2789479
50
65.2115242
51
90.0634737
0
ARC
8
DEFAULT_255_1_234
10
6.5320702
20
16.3306908
40
0.3350817
50
56.7890155
51
65.0672146
0
ARC
8
DEFAULT_255_1_234
10
6.4207216
20
16.1587263
40
0.5399465
50
51.1962736
51
56.8981192
0
ARC
8
DEFAULT_255_1_234
10
6.2531077
20
15.9484273
40
0.8088689
50
47.4370066
51
51.2787113
0
ARC
8
DEFAULT_255_1_234
10
7.1431767
20
16.9163954
40
0.5061164
50
227.3427993
51
232.8368305
0
ARC
8
DEFAULT_255_1_234
10
7.022474
20
16.7561905
40
0.3055317
50
232.7266512
51
240.7131413
0
ARC
8
DEFAULT_255_1_234
10
6.9583862
20
16.6406296
40
0.1733921
50
240.5035975
51
253.0086217
0
ARC
8
DEFAULT_255_1_234
10
6.9403284
20
16.5848866
40
0.1148098
50
253.4976366
51
260.9702484
0
ARC
8
DEFAULT_255_1_234
10
6.9473045
20
16.5993131
40
0.1294311
50
269.2460356
51
293.33961
0
ARC
8
DEFAULT_255_1_234
10
6.9470596
20
16.594259
40
0.1249075
50
294.3612908
51
321.4853472
0
ARC
8
DEFAULT_255_1_234
10
6.9185806
20
16.6181742
40
0.1620861
50
321.1395944
51
347.0211866
0
ARC
8
DEFAULT_255_1_234
10
6.8451743
20
16.6364761
40
0.2377315
50
346.6963107
51
359.2920958
0
ARC
8
DEFAULT_255_1_234
10
6.7844629
20
16.6393514
40
0.2984814
50
358.8841791
51
0.002206
0
LINE
8
DEFAULT_255_1_234
10
5.9308265
20
0.5303276
11
5.9308265
21
0.1889788
0
LINE
8
DEFAULT_255_1_234
10
5.9308265
20
0.1889788
11
6.256915
21
0.1889788
0
LINE
8
DEFAULT_255_1_234
10
6.256915
20
0.1889788
11
6.256915
21
0.0484233
0
LINE
8
DEFAULT_255_1_234
10
6.256915
20
0.0484233
11
5.9308265
21
0.0484233
0
LINE
8
DEFAULT_255_1_234
10
5.9308265
20
0.0484233
11
5.9308265
21
-0.3210366
0
LINE
8
DEFAULT_255_1_234
10
5.9308265
20
-0.3210366
11
5.7814361
21
-0.3210366
0
LINE
8
DEFAULT_255_1_234
10
5.7814361
20
-0.3210366
11
5.7814361
21
0.0484233
0
LINE
8
DEFAULT_255_1_234
10
5.7814361
20
0.0484233
11
5.4553476
21
0.0484233
0
LINE
8
DEFAULT_255_1_234
10
5.4553476
20
0.0484233
11
5.4553476
21
0.1889788
0
LINE
8
DEFAULT_255_1_234
10
5.4553476
20
0.1889788
11
5.7814361
21
0.1889788
0
LINE
8
DEFAULT_255_1_234
10
5.7814361
20
0.1889788
11
5.7814361
21
0.5303276
0
LINE
8
DEFAULT_255_1_234
10
5.7814361
20
0.5303276
11
5.9308265
21
0.5303276
0
LINE
8
DEFAULT_255_1_234
10
6.7468511
20
0.1191026
11
6.7468511
21
-0.0021766
0
LINE
8
DEFAULT_255_1_234
10
6.7468511
20
-0.0021766
11
6.3549022
21
-0.0021766
0
LINE
8
DEFAULT_255_1_234
10
6.3549022
20
-0.0021766
11
6.3549022
21
0.1191026
0
LINE
8
DEFAULT_255_1_234
10
6.3549022
20
0.1191026
11
6.7468511
21
0.1191026
0
LINE
8
DEFAULT_255_2_778
10
4.3391169
20
15.0798831
11
17.5683169
21
15.0798831
0
LINE
8
DEFAULT_255_2_778
10
17.5683169
20
15.0798831
11
17.5683169
21
1.8506831
0
LINE
8
DEFAULT_255_2_778
10
17.5683169
20
1.8506831
11
4.3391169
21
1.8506831
0
LINE
8
DEFAULT_255_2_778
10
4.3391169
20
1.8506831
11
4.3391169
21
15.0798831
0
LINE
8
DEFAULT_255_2_778
10
9.6307834
20
9.7882
11
12.2765834
21
9.7882
0
LINE
8
DEFAULT_255_2_778
10
12.2765834
20
7.1424166
11
10.9536834
21
9.7882166
0
LINE
8
DEFAULT_255_2_778
10
10.9536834
20
9.7882166
11
9.6307834
21
7.1424166
0
LINE
8
DEFAULT_255_2_778
10
9.6307834
20
7.1424166
11
12.2765834
21
7.1424166
0
LINE
8
DEFAULT_255_2_778
10
10.9537
20
5.8194333
11
10.9537
21
11.1111333
0
ENDSEC
0
EOF