0
SECTION
2
HEADER
9
$MEASUREMENT
70
1
0
ENDSEC
0
SECTION
2
TABLES
0
TABLE
2
LTYPE
0
LTYPE
72
65
70
64
2
CONTINUOUS
3
______
73
0
40
0
0
ENDTAB
0
TABLE
2
LAYER
0
LAYER
2
DEFAULT_255_2_778
70
0
62
255
6
CONTINUOUS
0
LAYER
2
DEFAULT_255_1_234
70
0
62
255
6
CONTINUOUS
0
ENDTAB
0
ENDSEC
0
SECTION
2
ENTITIES
0
ARC
8
DEFAULT_255_2_778
10
8.7977949
20
8.4681239
40
0.6599943
50
359.8778155
51
90.1308423
0
ARC
8
DEFAULT_255_2_778
10
8.7977734
20
8.4652308
40
0.660016
50
269.8710295
51
0.1289687
0
ARC
8
DEFAULT_255_2_778
10
8.7977736
20
7.1452023
40
0.6600158
50
359.8710091
51
90.1289884
0
ARC
8
DEFAULT_255_2_778
10
8.7977949
20
7.142309
40
0.6599943
50
269.8691547
51
0.1221771
0
ARC
8
DEFAULT_255_2_778
10
8.7977736
20
5.8223023
40
0.6600158
50
359.8710091
51
90.1289884
0
ARC
8
DEFAULT_255_2_778
10
8.7977949
20
5.819409
40
0.6599943
50
269.8691547
51
0.1221771
0
ARC
8
DEFAULT_255_2_778
10
8.7977735
20
4.4994023
40
0.6600158
50
359.8710104
51
90.1289853
0
ARC
8
DEFAULT_255_2_778
10
8.7977949
20
4.496509
40
0.6599943
50
269.8691547
51
0.1221771
0
ARC
8
DEFAULT_255_2_778
10
14.0894312
20
8.4680601
40
0.6600579
50
359.8833599
51
90.1253022
0
ARC
8
DEFAULT_255_2_778
10
14.0894097
20
8.4652944
40
0.6600796
50
269.8765721
51
0.1234322
0
ARC
8
DEFAULT_255_2_778
10
14.0894099
20
7.1451386
40
0.6600794
50
359.876553
51
90.1234488
0
ARC
8
DEFAULT_255_2_778
10
14.0894312
20
7.1423727
40
0.6600579
50
269.8746978
51
0.1166401
0
ARC
8
DEFAULT_255_2_778
10
14.0894099
20
5.8222386
40
0.6600794
50
359.876553
51
90.1234488
0
ARC
8
DEFAULT_255_2_778
10
14.0894312
20
5.8194727
40
0.6600579
50
269.8746978
51
0.1166401
0
ARC
8
DEFAULT_255_2_778
10
14.0894098
20
4.4993385
40
0.6600794
50
359.8765574
51
90.1234383
0
ARC
8
DEFAULT_255_2_778
10
14.0894312
20
4.4965727
40
0.6600579
50
269.8746978
51
0.1166401
0
ARC
8
DEFAULT_255_2_778
10
19.3811165
20
8.4681452
40
0.6599728
50
359.8759594
51
90.1240406
0
ARC
8
DEFAULT_255_2_778
10
19.3810949
20
8.4652093
40
0.6599945
50
269.8778346
51
0.1308319
0
ARC
8
DEFAULT_255_2_778
10
19.3810952
20
7.1452236
40
0.6599943
50
359.8691534
51
90.1221863
0
ARC
8
DEFAULT_255_2_778
10
19.3811165
20
7.1422876
40
0.6599728
50
269.8759594
51
0.1240406
0
ARC
8
DEFAULT_255_2_778
10
19.3810952
20
5.8223236
40
0.6599943
50
359.8691534
51
90.1221863
0
ARC
8
DEFAULT_255_2_778
10
19.3811165
20
5.8193876
40
0.6599728
50
269.8759594
51
0.1240406
0
ARC
8
DEFAULT_255_2_778
10
19.381095
20
4.4994236
40
0.6599943
50
359.8691577
51
90.1221758
0
ARC
8
DEFAULT_255_2_778
10
19.3811165
20
4.4964876
40
0.6599728
50
269.8759594
51
0.1240406
0
LINE
8
DEFAULT_255_2_778
10
8.7962877
20
15.7427164
11
8.7962877
21
9.1281164
0
LINE
8
DEFAULT_255_2_778
10
8.7962877
20
3.8365164
11
8.7962877
21
-2.7780836
0
LINE
8
DEFAULT_255_2_778
10
8.7962877
20
6.4823164
11
6.1504877
21
6.4823164
0
LINE
8
DEFAULT_255_2_778
10
6.1504877
20
6.4823164
11
6.1504877
21
-2.7780836
0
LINE
8
DEFAULT_255_2_778
10
14.0879877
20
15.7427164
11
14.0879877
21
9.1281164
0
LINE
8
DEFAULT_255_2_778
10
14.0879877
20
3.8365164
11
14.0879877
21
-2.7780836
0
LINE
8
DEFAULT_255_2_778
10
14.0879877
20
6.4823164
11
11.4421877
21
6.4823164
0
LINE
8
DEFAULT_255_2_778
10
11.4421877
20
6.4823164
11
11.4421877
21
-2.7780836
0
LINE
8
DEFAULT_255_2_778
10
19.3796877
20
15.7427164
11
19.3796877
21
9.1281164
0
LINE
8
DEFAULT_255_2_778
10
19.3796877
20
3.8365164
11
19.3796877
21
-2.7780836
0
LINE
8
DEFAULT_255_2_778
10
19.3796877
20
6.4823164
11
16.7337877
21
6.4823164
0
LINE
8
DEFAULT_255_2_778
10
16.7337877
20
6.4823164
11
16.7337877
21
-2.7780836
0
LINE
8
DEFAULT_255_1_234
10
6.6852567
20
11.3049137
11
7.8603
21
11.3049137
0
LINE
8
DEFAULT_255_1_234
10
7.8603
20
11.3049137
11
7.8603
21
11.1555234
0
LINE
8
DEFAULT_255_1_234
10
7.8603
20
11.1555234
11
6.8699867
21
11.1555234
0
LINE
8
DEFAULT_255_1_234
10
6.8699867
20
11.1555234
11
6.9800215
21
10.8559396
0
LINE
8
DEFAULT_255_1_234
10
6.9800215
20
10.8559396
11
6.8450883
21
10.8559396
0
LINE
8
DEFAULT_255_1_234
10
6.8450883
20
10.8559396
11
6.6852567
21
11.2816217
0
LINE
8
DEFAULT_255_1_234
10
6.6852567
20
11.2816217
11
6.6852567
21
11.3049137
0
LINE
8
DEFAULT_255_1_234
10
6.6908789
20
11.9337988
11
7.7342017
21
11.9337988
0
LINE
8
DEFAULT_255_1_234
10
7.7342017
20
11.9337988
11
7.7342017
21
12.4879888
0
LINE
8
DEFAULT_255_1_234
10
7.7342017
20
12.4879888
11
7.8603
21
12.4879888
0
LINE
8
DEFAULT_255_1_234
10
7.8603
20
12.4879888
11
7.8603
21
11.7787863
0
LINE
8
DEFAULT_255_1_234
10
7.8603
20
11.7787863
11
6.6908789
21
11.7787863
0
LINE
8
DEFAULT_255_1_234
10
6.6908789
20
11.7787863
11
6.6908789
21
11.9337988
0
LINE
8
DEFAULT_255_1_234
10
6.6852567
20
13.1136612
11
7.8603
21
13.1136612
0
LINE
8
DEFAULT_255_1_234
10
7.8603
20
13.1136612
11
7.8603
21
12.9642708
0
LINE
8
DEFAULT_255_1_234
10
7.8603
20
12.9642708
11
6.8699867
21
12.9642708
0
LINE
8
DEFAULT_255_1_234
10
6.8699867
20
12.9642708
11
6.9800215
21
12.664687
0
LINE
8
DEFAULT_255_1_234
10
6.9800215
20
12.664687
11
6.8450883
21
12.664687
0
LINE
8
DEFAULT_255_1_234
10
6.8450883
20
12.664687
11
6.6852567
21
13.0903691
0
LINE
8
DEFAULT_255_1_234
10
6.6852567
20
13.0903691
11
6.6852567
21
13.1136612
0
LINE
8
DEFAULT_255_1_234
10
11.9767567
20
11.2969137
11
13.1518
21
11.2969137
0
LINE
8
DEFAULT_255_1_234
10
13.1518
20
11.2969137
11
13.1518
21
11.1475234
0
LINE
8
DEFAULT_255_1_234
10
13.1518
20
11.1475234
11
12.1614867
21
11.1475234
0
LINE
8
DEFAULT_255_1_234
10
12.1614867
20
11.1475234
11
12.2715215
21
10.8479396
0
LINE
8
DEFAULT_255_1_234
10
12.2715215
20
10.8479396
11
12.1365883
21
10.8479396
0
LINE
8
DEFAULT_255_1_234
10
12.1365883
20
10.8479396
11
11.9767567
21
11.2736217
0
LINE
8
DEFAULT_255_1_234
10
11.9767567
20
11.2736217
11
11.9767567
21
11.2969137
0
LINE
8
DEFAULT_255_1_234
10
11.9823789
20
11.9257988
11
13.0257017
21
11.9257988
0
LINE
8
DEFAULT_255_1_234
10
13.0257017
20
11.9257988
11
13.0257017
21
12.4799888
0
LINE
8
DEFAULT_255_1_234
10
13.0257017
20
12.4799888
11
13.1518
21
12.4799888
0
LINE
8
DEFAULT_255_1_234
10
13.1518
20
12.4799888
11
13.1518
21
11.7707863
0
LINE
8
DEFAULT_255_1_234
10
13.1518
20
11.7707863
11
11.9823789
21
11.7707863
0
LINE
8
DEFAULT_255_1_234
10
11.9823789
20
11.7707863
11
11.9823789
21
11.9257988
0
LINE
8
DEFAULT_255_1_234
10
13.0305208
20
13.3835593
11
13.1518
21
13.3835593
0
LINE
8
DEFAULT_255_1_234
10
13.1518
20
13.3835593
11
13.1518
21
12.6173315
0
LINE
8
DEFAULT_255_1_234
10
13.1518
20
12.6173315
11
13.0449779
21
12.6173315
0
LINE
8
DEFAULT_255_1_234
10
13.0449779
20
12.6173315
11
12.5952005
21
13.0221311
0
LINE
8
DEFAULT_255_1_234
10
12.3269405
20
12.7434298
11
12.3269405
21
12.5948426
0
LINE
8
DEFAULT_255_1_234
10
12.6907782
20
13.1096771
11
13.0305208
21
12.7964393
0
LINE
8
DEFAULT_255_1_234
10
13.0305208
20
12.7964393
11
13.0305208
21
13.3835593
0
ARC
8
DEFAULT_255_1_234
10
11.4022473
20
11.6731144
40
1.8008286
50
48.5132453
51
50.7828378
0
ARC
8
DEFAULT_255_1_234
10
11.8325574
20
12.2018119
40
1.1191493
50
50.7372736
51
53.9737074
0
ARC
8
DEFAULT_255_1_234
10
12.1165639
20
12.5937975
40
0.6350923
50
53.8961724
51
58.6421089
0
ARC
8
DEFAULT_255_1_234
10
12.2427969
20
12.7984571
40
0.3946393
50
58.8299013
51
61.789948
0
ARC
8
DEFAULT_255_1_234
10
12.2942491
20
12.8981749
40
0.2824501
50
61.4255242
51
82.9364833
0
ARC
8
DEFAULT_255_1_234
10
12.2973024
20
12.911825
40
0.2685315
50
83.2248685
51
90.0169286
0
ARC
8
DEFAULT_255_1_234
10
12.295005
20
12.9328126
40
0.2475536
50
89.4866256
51
105.9339782
0
ARC
8
DEFAULT_255_1_234
10
12.2813714
20
12.9835112
40
0.1950618
50
106.1714718
51
133.5284424
0
ARC
8
DEFAULT_255_1_234
10
12.2736427
20
12.991242
40
0.184134
50
133.4415429
51
173.1661404
0
ARC
8
DEFAULT_255_1_234
10
12.3473229
20
12.9778339
40
0.258926
50
172.160215
51
180.1505798
0
ARC
8
DEFAULT_255_1_234
10
12.4010135
20
12.9746766
40
0.3126255
50
179.5460705
51
192.5418777
0
ARC
8
DEFAULT_255_1_234
10
12.2979335
20
12.9503852
40
0.2067346
50
192.1739365
51
219.2061916
0
ARC
8
DEFAULT_255_1_234
10
12.2854906
20
12.9424924
40
0.1921118
50
219.7279328
51
225.7542026
0
ARC
8
DEFAULT_255_1_234
10
12.2951955
20
12.9546451
40
0.2075944
50
226.175737
51
256.3674722
0
ARC
8
DEFAULT_255_1_234
10
12.3221818
20
13.0553371
40
0.3118201
50
255.9092917
51
268.8683903
0
ARC
8
DEFAULT_255_1_234
10
12.3268821
20
13.1418232
40
0.3983935
50
268.438168
51
270.0083905
0
ARC
8
DEFAULT_255_1_234
10
12.3229769
20
13.0016834
40
0.4068601
50
253.2878735
51
270.5581814
0
ARC
8
DEFAULT_255_1_234
10
12.300916
20
12.9215095
40
0.3237344
50
223.454115
51
252.9470031
0
ARC
8
DEFAULT_255_1_234
10
12.3199
20
12.9393637
40
0.349795
50
190.7869394
51
223.4384016
0
ARC
8
DEFAULT_255_1_234
10
12.4747681
20
12.9741408
40
0.5084616
50
179.6605301
51
191.3704185
0
ARC
8
DEFAULT_255_1_234
10
12.4686504
20
12.9807747
40
0.502348
50
168.2171172
51
180.4130393
0
ARC
8
DEFAULT_255_1_234
10
12.3062363
20
13.0162825
40
0.3361092
50
145.9268222
51
168.4888551
0
ARC
8
DEFAULT_255_1_234
10
12.2723676
20
13.0359266
40
0.2970617
50
137.9292255
51
145.4054003
0
ARC
8
DEFAULT_255_1_234
10
12.2620498
20
13.0460826
40
0.2825983
50
94.3347696
51
138.0560701
0
ARC
8
DEFAULT_255_1_234
10
12.2790399
20
12.936522
40
0.393225
50
89.925209
51
95.5967654
0
ARC
8
DEFAULT_255_1_234
10
12.2734184
20
12.9794112
40
0.3503892
50
67.8914096
51
88.9967724
0
ARC
8
DEFAULT_255_1_234
10
12.1687294
20
12.7080524
40
0.6412172
50
56.9135351
51
68.3505194
0
ARC
8
DEFAULT_255_1_234
10
11.9132716
20
12.3094827
40
1.1146189
50
49.6472867
51
57.095818
0
ARC
8
DEFAULT_255_1_234
10
11.5971
20
11.9261831
40
1.6114559
50
47.2586784
51
49.9046139
0
LINE
8
DEFAULT_255_1_234
10
17.2681567
20
11.2969137
11
18.4432
21
11.2969137
0
LINE
8
DEFAULT_255_1_234
10
18.4432
20
11.2969137
11
18.4432
21
11.1475234
0
LINE
8
DEFAULT_255_1_234
10
18.4432
20
11.1475234
11
17.4528867
21
11.1475234
0
LINE
8
DEFAULT_255_1_234
10
17.4528867
20
11.1475234
11
17.5629215
21
10.8479396
0
LINE
8
DEFAULT_255_1_234
10
17.5629215
20
10.8479396
11
17.4279883
21
10.8479396
0
LINE
8
DEFAULT_255_1_234
10
17.4279883
20
10.8479396
11
17.2681567
21
11.2736217
0
LINE
8
DEFAULT_255_1_234
10
17.2681567
20
11.2736217
11
17.2681567
21
11.2969137
0
LINE
8
DEFAULT_255_1_234
10
17.2737789
20
11.9257988
11
18.3171017
21
11.9257988
0
LINE
8
DEFAULT_255_1_234
10
18.3171017
20
11.9257988
11
18.3171017
21
12.4799888
0
LINE
8
DEFAULT_255_1_234
10
18.3171017
20
12.4799888
11
18.4432
21
12.4799888
0
LINE
8
DEFAULT_255_1_234
10
18.4432
20
12.4799888
11
18.4432
21
11.7707863
0
LINE
8
DEFAULT_255_1_234
10
18.4432
20
11.7707863
11
17.2737789
21
11.7707863
0
LINE
8
DEFAULT_255_1_234
10
17.2737789
20
11.7707863
11
17.2737789
21
11.9257988
0
LINE
8
DEFAULT_255_1_234
10
17.9074831
20
12.8333853
11
17.7862038
21
12.8333853
0
LINE
8
DEFAULT_255_1_234
10
17.7862038
20
12.8333853
11
17.7862038
21
12.9450264
0
LINE
8
DEFAULT_255_1_234
10
17.5805913
20
12.7546742
11
17.5805913
21
12.6060871
0
LINE
8
DEFAULT_255_1_234
10
18.1347813
20
12.5956458
11
18.1347813
21
12.7450361
0
LINE
8
DEFAULT_255_1_234
10
17.9074831
20
12.9450264
11
17.9074831
21
12.8333853
0
ARC
8
DEFAULT_255_1_234
10
17.4469287
20
12.9421131
40
0.3392876
50
0.4919872
51
11.8951556
0
ARC
8
DEFAULT_255_1_234
10
17.5571298
20
12.9662392
40
0.2264817
50
11.6691735
51
31.2943132
0
ARC
8
DEFAULT_255_1_234
10
17.5882696
20
12.9832603
40
0.1910381
50
31.7833094
51
41.7545298
0
ARC
8
DEFAULT_255_1_234
10
17.5984252
20
12.9924178
40
0.1773635
50
41.7323931
51
84.2802411
0
ARC
8
DEFAULT_255_1_234
10
17.5859278
20
12.9197804
40
0.2509385
50
83.0937916
51
90.1181479
0
ARC
8
DEFAULT_255_1_234
10
17.5811614
20
12.8736588
40
0.2970898
50
89.1805295
51
105.0453146
0
ARC
8
DEFAULT_255_1_234
10
17.5419008
20
13.0082425
40
0.1569564
50
103.9577229
51
167.6713066
0
ARC
8
DEFAULT_255_1_234
10
17.6804051
20
12.9695955
40
0.3006298
50
166.1116566
51
180.7026153
0
ARC
8
DEFAULT_255_1_234
10
17.6530455
20
12.9636793
40
0.2732568
50
179.5324876
51
193.531937
0
ARC
8
DEFAULT_255_1_234
10
17.5731116
20
12.9436237
40
0.1908508
50
193.2931773
51
223.5619022
0
ARC
8
DEFAULT_255_1_234
10
17.5671625
20
12.9391725
40
0.1834746
50
223.8349307
51
263.5344437
0
ARC
8
DEFAULT_255_1_234
10
17.5799787
20
13.0114768
40
0.2568033
50
262.5096846
51
270.1366907
0
ARC
8
DEFAULT_255_1_234
10
17.5765378
20
12.9163662
40
0.3103056
50
245.3484492
51
270.7484736
0
ARC
8
DEFAULT_255_1_234
10
17.5794154
20
12.9114751
40
0.3070957
50
221.5744599
51
244.4798489
0
ARC
8
DEFAULT_255_1_234
10
17.611069
20
12.9427899
40
0.3515643
50
186.9875458
51
221.9690667
0
ARC
8
DEFAULT_255_1_234
10
17.7356364
20
12.9647379
40
0.4779224
50
179.8596053
51
187.7825159
0
ARC
8
DEFAULT_255_1_234
10
17.7618384
20
12.9695442
40
0.5041361
50
168.3655447
51
180.4131539
0
ARC
8
DEFAULT_255_1_234
10
17.5959113
20
13.005336
40
0.3344039
50
146.6229102
51
168.638727
0
ARC
8
DEFAULT_255_1_234
10
17.5583195
20
13.0268303
40
0.2912001
50
137.0253525
51
146.0854072
0
ARC
8
DEFAULT_255_1_234
10
17.5543777
20
13.0288083
40
0.2869704
50
100.9208013
51
136.7778124
0
ARC
8
DEFAULT_255_1_234
10
17.5859143
20
12.892415
40
0.426899
50
89.6364486
51
101.6087304
0
ARC
8
DEFAULT_255_1_234
10
17.5874248
20
13.0758994
40
0.243409
50
62.3549906
51
89.7179418
0
ARC
8
DEFAULT_255_1_234
10
17.5565858
20
13.0108595
40
0.3153459
50
55.2333722
51
62.8745602
0
ARC
8
DEFAULT_255_1_234
10
17.5672172
20
13.0261219
40
0.2967456
50
22.9802137
51
55.2392345
0
ARC
8
DEFAULT_255_1_234
10
17.5138137
20
12.9986593
40
0.3566604
50
22.5402179
51
23.6924929
0
ARC
8
DEFAULT_255_1_234
10
18.1592909
20
13.0379189
40
0.3307468
50
147.6435486
51
162.8625112
0
ARC
8
DEFAULT_255_1_234
10
18.1018451
20
13.0733689
40
0.2632492
50
126.7248896
51
147.4697979
0
ARC
8
DEFAULT_255_1_234
10
18.100578
20
13.0722321
40
0.2634081
50
98.0545065
51
126.356114
0
ARC
8
DEFAULT_255_1_234
10
18.1160826
20
12.9859506
40
0.3510261
50
89.8320645
51
98.5869982
0
ARC
8
DEFAULT_255_1_234
10
18.1208899
20
12.9484283
40
0.3885653
50
73.9829931
51
90.5571613
0
ARC
8
DEFAULT_255_1_234
10
18.1451562
20
13.037048
40
0.2966924
50
41.6359546
51
73.7651759
0
ARC
8
DEFAULT_255_1_234
10
18.1024898
20
12.9992049
40
0.3537231
50
9.7829875
51
41.6255694
0
ARC
8
DEFAULT_255_1_234
10
17.958772
20
12.9690825
40
0.5004971
50
359.7286406
51
10.3856417
0
ARC
8
DEFAULT_255_1_234
10
17.9629004
20
12.9628898
40
0.4963778
50
346.6828919
51
0.4412052
0
ARC
8
DEFAULT_255_1_234
10
18.1013606
20
12.9290194
40
0.3538406
50
319.4223008
51
346.8556159
0
ARC
8
DEFAULT_255_1_234
10
18.1480264
20
12.8875586
40
0.2914296
50
271.818294
51
319.6455059
0
ARC
8
DEFAULT_255_1_234
10
18.1349504
20
12.9915543
40
0.3959084
50
269.9755256
51
273.2323064
0
ARC
8
DEFAULT_255_1_234
10
18.1369963
20
12.9743288
40
0.2293034
50
269.4465117
51
286.2869258
0
ARC
8
DEFAULT_255_1_234
10
18.1503349
20
12.9255697
40
0.1787621
50
286.5661473
51
317.705904
0
ARC
8
DEFAULT_255_1_234
10
18.1319845
20
12.9419791
40
0.2033784
50
317.7652068
51
347.8762805
0
ARC
8
DEFAULT_255_1_234
10
18.0376844
20
12.9644762
40
0.3003081
50
347.4584385
51
0.426602
0
ARC
8
DEFAULT_255_1_234
10
18.0087004
20
12.9690328
40
0.329292
50
359.5962073
51
10.8789248
0
ARC
8
DEFAULT_255_1_234
10
18.1233315
20
12.9919856
40
0.2123908
50
10.6346389
51
29.8595945
0
ARC
8
DEFAULT_255_1_234
10
18.1595788
20
13.0110763
40
0.171457
50
30.3576302
51
44.5517981
0
ARC
8
DEFAULT_255_1_234
10
18.1535081
20
13.0027823
40
0.1816095
50
45.0728369
51
75.0431014
0
ARC
8
DEFAULT_255_1_234
10
18.1266159
20
12.9104638
40
0.2777492
50
74.5986631
51
87.9269593
0
ARC
8
DEFAULT_255_1_234
10
18.1204724
20
12.8208964
40
0.3674917
50
87.4748886
51
90.0231117
0
ARC
8
DEFAULT_255_1_234
10
18.1180321
20
12.9232073
40
0.2651907
50
89.5047933
51
103.4239635
0
ARC
8
DEFAULT_255_1_234
10
18.0958522
20
13.0098717
40
0.1757509
50
102.9498199
51
138.7551375
0
ARC
8
DEFAULT_255_1_234
10
18.12076
20
12.9916451
40
0.2065134
50
139.5088623
51
162.1836453
0
ARC
8
DEFAULT_255_1_234
10
18.2269709
20
12.9558603
40
0.3185836
50
161.9010081
51
174.3554254
0
ARC
8
DEFAULT_255_1_234
10
18.3630674
20
12.9397235
40
0.4556151
50
174.0193428
51
179.333121
0
LINE
8
DEFAULT_255_1_234
10
5.0925208
20
-0.5803881
11
5.2138
21
-0.5803881
0
LINE
8
DEFAULT_255_1_234
10
5.2138
20
-0.5803881
11
5.2138
21
-1.346616
0
LINE
8
DEFAULT_255_1_234
10
5.2138
20
-1.346616
11
5.1069779
21
-1.346616
0
LINE
8
DEFAULT_255_1_234
10
5.1069779
20
-1.346616
11
4.6572005
21
-0.9418164
0
LINE
8
DEFAULT_255_1_234
10
4.3889405
20
-1.2205177
11
4.3889405
21
-1.3691048
0
LINE
8
DEFAULT_255_1_234
10
4.7527782
20
-0.8542704
11
5.0925208
21
-1.1675082
0
LINE
8
DEFAULT_255_1_234
10
5.0925208
20
-1.1675082
11
5.0925208
21
-0.5803881
0
ARC
8
DEFAULT_255_1_234
10
3.4642473
20
-2.290833
40
1.8008286
50
48.5132453
51
50.7828378
0
ARC
8
DEFAULT_255_1_234
10
3.8945574
20
-1.7621356
40
1.1191493
50
50.7372736
51
53.9737074
0
ARC
8
DEFAULT_255_1_234
10
4.1785639
20
-1.3701499
40
0.6350923
50
53.8961724
51
58.6421089
0
ARC
8
DEFAULT_255_1_234
10
4.3047969
20
-1.1654904
40
0.3946393
50
58.8299013
51
61.789948
0
ARC
8
DEFAULT_255_1_234
10
4.3562491
20
-1.0657726
40
0.2824501
50
61.4255242
51
82.9364833
0
ARC
8
DEFAULT_255_1_234
10
4.3593024
20
-1.0521225
40
0.2685315
50
83.2248685
51
90.0169286
0
ARC
8
DEFAULT_255_1_234
10
4.357005
20
-1.0311348
40
0.2475536
50
89.4866256
51
105.9339782
0
ARC
8
DEFAULT_255_1_234
10
4.3433714
20
-0.9804363
40
0.1950618
50
106.1714718
51
133.5284424
0
ARC
8
DEFAULT_255_1_234
10
4.3356427
20
-0.9727054
40
0.184134
50
133.4415429
51
173.1661404
0
ARC
8
DEFAULT_255_1_234
10
4.4093229
20
-0.9861136
40
0.258926
50
172.160215
51
180.1505798
0
ARC
8
DEFAULT_255_1_234
10
4.4630135
20
-0.9892709
40
0.3126255
50
179.5460705
51
192.5418777
0
ARC
8
DEFAULT_255_1_234
10
4.3599335
20
-1.0135623
40
0.2067346
50
192.1739365
51
219.2061916
0
ARC
8
DEFAULT_255_1_234
10
4.3474906
20
-1.0214551
40
0.1921118
50
219.7279328
51
225.7542026
0
ARC
8
DEFAULT_255_1_234
10
4.3571955
20
-1.0093023
40
0.2075944
50
226.175737
51
256.3674722
0
ARC
8
DEFAULT_255_1_234
10
4.3841818
20
-0.9086104
40
0.3118201
50
255.9092917
51
268.8683903
0
ARC
8
DEFAULT_255_1_234
10
4.3888821
20
-0.8221243
40
0.3983935
50
268.438168
51
270.0083905
0
ARC
8
DEFAULT_255_1_234
10
4.3849769
20
-0.9622641
40
0.4068601
50
253.2878735
51
270.5581814
0
ARC
8
DEFAULT_255_1_234
10
4.362916
20
-1.0424379
40
0.3237344
50
223.454115
51
252.9470031
0
ARC
8
DEFAULT_255_1_234
10
4.3819
20
-1.0245838
40
0.349795
50
190.7869394
51
223.4384016
0
ARC
8
DEFAULT_255_1_234
10
4.5367681
20
-0.9898066
40
0.5084616
50
179.6605301
51
191.3704185
0
ARC
8
DEFAULT_255_1_234
10
4.5306504
20
-0.9831727
40
0.502348
50
168.2171172
51
180.4130393
0
ARC
8
DEFAULT_255_1_234
10
4.3682363
20
-0.9476649
40
0.3361092
50
145.9268222
51
168.4888551
0
ARC
8
DEFAULT_255_1_234
10
4.3343676
20
-0.9280209
40
0.2970617
50
137.9292255
51
145.4054003
0
ARC
8
DEFAULT_255_1_234
10
4.3240498
20
-0.9178648
40
0.2825983
50
94.3347696
51
138.0560701
0
ARC
8
DEFAULT_255_1_234
10
4.3410399
20
-1.0274255
40
0.393225
50
89.925209
51
95.5967654
0
ARC
8
DEFAULT_255_1_234
10
4.3354184
20
-0.9845363
40
0.3503892
50
67.8914096
51
88.9967724
0
ARC
8
DEFAULT_255_1_234
10
4.2307294
20
-1.2558951
40
0.6412172
50
56.9135351
51
68.3505194
0
ARC
8
DEFAULT_255_1_234
10
3.9752716
20
-1.6544647
40
1.1146189
50
49.6472867
51
57.095818
0
ARC
8
DEFAULT_255_1_234
10
3.6591
20
-2.0377644
40
1.6114559
50
47.2586784
51
49.9046139
0
ARC
8
DEFAULT_255_1_234
10
5.1349435
20
-0.2974616
40
0.1070357
50
253.5417914
51
270.5078233
0
ARC
8
DEFAULT_255_1_234
10
5.1297579
20
-0.3166798
40
0.0871371
50
228.1647447
51
253.2316401
0
ARC
8
DEFAULT_255_1_234
10
5.1202466
20
-0.3279019
40
0.0724329
50
195.6856465
51
227.8494928
0
ARC
8
DEFAULT_255_1_234
10
5.1586871
20
-0.3160587
40
0.1126485
50
182.6088068
51
196.1990587
0
ARC
8
DEFAULT_255_1_234
10
5.1982226
20
-0.3130214
40
0.1522861
50
179.9660831
51
183.0733434
0
ARC
8
DEFAULT_255_1_234
10
5.176068
20
-0.3119519
40
0.130135
50
168.4379222
51
180.4311858
0
ARC
8
DEFAULT_255_1_234
10
5.1310412
20
-0.3022939
40
0.0840873
50
146.8960528
51
168.7359558
0
ARC
8
DEFAULT_255_1_234
10
5.1200123
20
-0.2959712
40
0.0713991
50
132.6499553
51
146.3125067
0
ARC
8
DEFAULT_255_1_234
10
5.1317854
20
-0.3087825
40
0.0887984
50
93.8142714
51
132.6365749
0
ARC
8
DEFAULT_255_1_234
10
5.1357847
20
-0.3374024
40
0.1176392
50
89.9476902
51
94.8305927
0
ARC
8
DEFAULT_255_1_234
10
5.1368459
20
-0.3147865
40
0.0950282
50
70.9376387
51
90.5750546
0
ARC
8
DEFAULT_255_1_234
10
5.1398808
20
-0.3035369
40
0.0834082
50
46.0805399
51
70.3842391
0
ARC
8
DEFAULT_255_1_234
10
5.1452191
20
-0.297729
40
0.0755219
50
15.8514865
51
45.9414755
0
ARC
8
DEFAULT_255_1_234
10
5.1072651
20
-0.3094719
40
0.115244
50
3.1292529
51
16.3135479
0
ARC
8
DEFAULT_255_1_234
10
5.0670951
20
-0.312802
40
0.1555398
50
359.9524064
51
3.5463789
0
ARC
8
DEFAULT_255_1_234
10
5.0889208
20
-0.3139068
40
0.1337177
50
349.0490813
51
0.4180302
0
ARC
8
DEFAULT_255_1_234
10
5.1366607
20
-0.3235405
40
0.0850178
50
329.7587791
51
349.311372
0
ARC
8
DEFAULT_255_1_234
10
5.1517518
20
-0.3316374
40
0.0679053
50
312.6244131
51
329.247817
0
ARC
8
DEFAULT_255_1_234
10
5.1394381
20
-0.3181999
40
0.0861314
50
272.9227855
51
312.598345
0
ARC
8
DEFAULT_255_1_234
10
5.1359627
20
-0.291338
40
0.113155
50
269.9642935
51
273.9868025
0
LINE
8
DEFAULT_255_1_234
10
4.0387567
20
0.4982743
11
5.2138
21
0.4982743
0
LINE
8
DEFAULT_255_1_234
10
5.2138
20
0.4982743
11
5.2138
21
0.348884
0
LINE
8
DEFAULT_255_1_234
10
5.2138
20
0.348884
11
4.2234867
21
0.348884
0
LINE
8
DEFAULT_255_1_234
10
4.2234867
20
0.348884
11
4.3335215
21
0.0493001
0
LINE
8
DEFAULT_255_1_234
10
4.3335215
20
0.0493001
11
4.1985883
21
0.0493001
0
LINE
8
DEFAULT_255_1_234
10
4.1985883
20
0.0493001
11
4.0387567
21
0.4749823
0
LINE
8
DEFAULT_255_1_234
10
4.0387567
20
0.4749823
11
4.0387567
21
0.4982743
0
LINE
8
DEFAULT_255_1_234
10
4.0443789
20
1.8708984
11
5.2138
21
1.8708984
0
LINE
8
DEFAULT_255_1_234
10
5.2138
20
1.8708984
11
5.2138
21
1.7158858
0
LINE
8
DEFAULT_255_1_234
10
5.2138
20
1.7158858
11
4.312639
21
1.1271594
0
LINE
8
DEFAULT_255_1_234
10
4.312639
20
1.1271594
11
5.2138
21
1.1271594
0
LINE
8
DEFAULT_255_1_234
10
5.2138
20
1.1271594
11
5.2138
21
0.9721469
0
LINE
8
DEFAULT_255_1_234
10
5.2138
20
0.9721469
11
4.0443789
21
0.9721469
0
LINE
8
DEFAULT_255_1_234
10
4.0443789
20
0.9721469
11
4.0443789
21
1.1271594
0
LINE
8
DEFAULT_255_1_234
10
4.0443789
20
1.1271594
11
4.9495558
21
1.7174922
0
LINE
8
DEFAULT_255_1_234
10
4.9495558
20
1.7174922
11
4.0443789
21
1.7174922
0
LINE
8
DEFAULT_255_1_234
10
4.0443789
20
1.7174922
11
4.0443789
21
1.8708984
0
LINE
8
DEFAULT_255_1_234
10
4.0387567
20
2.594558
11
5.2138
21
2.594558
0
LINE
8
DEFAULT_255_1_234
10
5.2138
20
2.594558
11
5.2138
21
2.4451677
0
LINE
8
DEFAULT_255_1_234
10
5.2138
20
2.4451677
11
4.2234867
21
2.4451677
0
LINE
8
DEFAULT_255_1_234
10
4.2234867
20
2.4451677
11
4.3335215
21
2.1455838
0
LINE
8
DEFAULT_255_1_234
10
4.3335215
20
2.1455838
11
4.1985883
21
2.1455838
0
LINE
8
DEFAULT_255_1_234
10
4.1985883
20
2.1455838
11
4.0387567
21
2.571266
0
LINE
8
DEFAULT_255_1_234
10
4.0387567
20
2.571266
11
4.0387567
21
2.594558
0
LINE
8
DEFAULT_255_1_234
10
10.3839208
20
-0.5712881
11
10.5052
21
-0.5712881
0
LINE
8
DEFAULT_255_1_234
10
10.5052
20
-0.5712881
11
10.5052
21
-1.337516
0
LINE
8
DEFAULT_255_1_234
10
10.5052
20
-1.337516
11
10.3983779
21
-1.337516
0
LINE
8
DEFAULT_255_1_234
10
10.3983779
20
-1.337516
11
9.9486005
21
-0.9327164
0
LINE
8
DEFAULT_255_1_234
10
9.6803405
20
-1.2114177
11
9.6803405
21
-1.3600048
0
LINE
8
DEFAULT_255_1_234
10
10.0441782
20
-0.8451704
11
10.3839208
21
-1.1584082
0
LINE
8
DEFAULT_255_1_234
10
10.3839208
20
-1.1584082
11
10.3839208
21
-0.5712881
0
ARC
8
DEFAULT_255_1_234
10
8.7556473
20
-2.281733
40
1.8008286
50
48.5132453
51
50.7828378
0
ARC
8
DEFAULT_255_1_234
10
9.1859574
20
-1.7530356
40
1.1191493
50
50.7372736
51
53.9737074
0
ARC
8
DEFAULT_255_1_234
10
9.4699639
20
-1.3610499
40
0.6350923
50
53.8961724
51
58.6421089
0
ARC
8
DEFAULT_255_1_234
10
9.5961969
20
-1.1563904
40
0.3946393
50
58.8299013
51
61.789948
0
ARC
8
DEFAULT_255_1_234
10
9.6476491
20
-1.0566726
40
0.2824501
50
61.4255242
51
82.9364833
0
ARC
8
DEFAULT_255_1_234
10
9.6507024
20
-1.0430225
40
0.2685315
50
83.2248685
51
90.0169286
0
ARC
8
DEFAULT_255_1_234
10
9.648405
20
-1.0220348
40
0.2475536
50
89.4866256
51
105.9339782
0
ARC
8
DEFAULT_255_1_234
10
9.6347714
20
-0.9713363
40
0.1950618
50
106.1714718
51
133.5284424
0
ARC
8
DEFAULT_255_1_234
10
9.6270427
20
-0.9636054
40
0.184134
50
133.4415429
51
173.1661404
0
ARC
8
DEFAULT_255_1_234
10
9.7007229
20
-0.9770136
40
0.258926
50
172.160215
51
180.1505798
0
ARC
8
DEFAULT_255_1_234
10
9.7544135
20
-0.9801709
40
0.3126255
50
179.5460705
51
192.5418777
0
ARC
8
DEFAULT_255_1_234
10
9.6513335
20
-1.0044623
40
0.2067346
50
192.1739365
51
219.2061916
0
ARC
8
DEFAULT_255_1_234
10
9.6388906
20
-1.0123551
40
0.1921118
50
219.7279328
51
225.7542026
0
ARC
8
DEFAULT_255_1_234
10
9.6485955
20
-1.0002023
40
0.2075944
50
226.175737
51
256.3674722
0
ARC
8
DEFAULT_255_1_234
10
9.6755818
20
-0.8995104
40
0.3118201
50
255.9092917
51
268.8683903
0
ARC
8
DEFAULT_255_1_234
10
9.6802821
20
-0.8130243
40
0.3983935
50
268.438168
51
270.0083905
0
ARC
8
DEFAULT_255_1_234
10
9.6763769
20
-0.9531641
40
0.4068601
50
253.2878735
51
270.5581814
0
ARC
8
DEFAULT_255_1_234
10
9.654316
20
-1.0333379
40
0.3237344
50
223.454115
51
252.9470031
0
ARC
8
DEFAULT_255_1_234
10
9.6733
20
-1.0154838
40
0.349795
50
190.7869394
51
223.4384016
0
ARC
8
DEFAULT_255_1_234
10
9.8281681
20
-0.9807066
40
0.5084616
50
179.6605301
51
191.3704185
0
ARC
8
DEFAULT_255_1_234
10
9.8220504
20
-0.9740727
40
0.502348
50
168.2171172
51
180.4130393
0
ARC
8
DEFAULT_255_1_234
10
9.6596363
20
-0.9385649
40
0.3361092
50
145.9268222
51
168.4888551
0
ARC
8
DEFAULT_255_1_234
10
9.6257676
20
-0.9189209
40
0.2970617
50
137.9292255
51
145.4054003
0
ARC
8
DEFAULT_255_1_234
10
9.6154498
20
-0.9087648
40
0.2825983
50
94.3347696
51
138.0560701
0
ARC
8
DEFAULT_255_1_234
10
9.6324399
20
-1.0183255
40
0.393225
50
89.925209
51
95.5967654
0
ARC
8
DEFAULT_255_1_234
10
9.6268184
20
-0.9754363
40
0.3503892
50
67.8914096
51
88.9967724
0
ARC
8
DEFAULT_255_1_234
10
9.5221294
20
-1.2467951
40
0.6412172
50
56.9135351
51
68.3505194
0
ARC
8
DEFAULT_255_1_234
10
9.2666716
20
-1.6453647
40
1.1146189
50
49.6472867
51
57.095818
0
ARC
8
DEFAULT_255_1_234
10
8.9505
20
-2.0286644
40
1.6114559
50
47.2586784
51
49.9046139
0
ARC
8
DEFAULT_255_1_234
10
10.4263435
20
-0.2883616
40
0.1070357
50
253.5417914
51
270.5078233
0
ARC
8
DEFAULT_255_1_234
10
10.4211579
20
-0.3075798
40
0.0871371
50
228.1647447
51
253.2316401
0
ARC
8
DEFAULT_255_1_234
10
10.4116466
20
-0.3188019
40
0.0724329
50
195.6856465
51
227.8494928
0
ARC
8
DEFAULT_255_1_234
10
10.4500871
20
-0.3069587
40
0.1126485
50
182.6088068
51
196.1990587
0
ARC
8
DEFAULT_255_1_234
10
10.4896226
20
-0.3039214
40
0.1522861
50
179.9660831
51
183.0733434
0
ARC
8
DEFAULT_255_1_234
10
10.467468
20
-0.3028519
40
0.130135
50
168.4379222
51
180.4311858
0
ARC
8
DEFAULT_255_1_234
10
10.4224412
20
-0.2931939
40
0.0840873
50
146.8960528
51
168.7359558
0
ARC
8
DEFAULT_255_1_234
10
10.4114123
20
-0.2868712
40
0.0713991
50
132.6499553
51
146.3125067
0
ARC
8
DEFAULT_255_1_234
10
10.4231854
20
-0.2996825
40
0.0887984
50
93.8142714
51
132.6365749
0
ARC
8
DEFAULT_255_1_234
10
10.4271847
20
-0.3283024
40
0.1176392
50
89.9476902
51
94.8305927
0
ARC
8
DEFAULT_255_1_234
10
10.4282459
20
-0.3056865
40
0.0950282
50
70.9376387
51
90.5750546
0
ARC
8
DEFAULT_255_1_234
10
10.4312808
20
-0.2944369
40
0.0834082
50
46.0805399
51
70.3842391
0
ARC
8
DEFAULT_255_1_234
10
10.4366191
20
-0.288629
40
0.0755219
50
15.8514865
51
45.9414755
0
ARC
8
DEFAULT_255_1_234
10
10.3986651
20
-0.3003719
40
0.115244
50
3.1292529
51
16.3135479
0
ARC
8
DEFAULT_255_1_234
10
10.3584951
20
-0.303702
40
0.1555398
50
359.9524064
51
3.5463789
0
ARC
8
DEFAULT_255_1_234
10
10.3803208
20
-0.3048068
40
0.1337177
50
349.0490813
51
0.4180302
0
ARC
8
DEFAULT_255_1_234
10
10.4280607
20
-0.3144405
40
0.0850178
50
329.7587791
51
349.311372
0
ARC
8
DEFAULT_255_1_234
10
10.4431518
20
-0.3225374
40
0.0679053
50
312.6244131
51
329.247817
0
ARC
8
DEFAULT_255_1_234
10
10.4308381
20
-0.3090999
40
0.0861314
50
272.9227855
51
312.598345
0
ARC
8
DEFAULT_255_1_234
10
10.4273627
20
-0.282238
40
0.113155
50
269.9642935
51
273.9868025
0
LINE
8
DEFAULT_255_1_234
10
9.3301567
20
0.5073743
11
10.5052
21
0.5073743
0
LINE
8
DEFAULT_255_1_234
10
10.5052
20
0.5073743
11
10.5052
21
0.357984
0
LINE
8
DEFAULT_255_1_234
10
10.5052
20
0.357984
11
9.5148867
21
0.357984
0
LINE
8
DEFAULT_255_1_234
10
9.5148867
20
0.357984
11
9.6249215
21
0.0584001
0
LINE
8
DEFAULT_255_1_234
10
9.6249215
20
0.0584001
11
9.4899883
21
0.0584001
0
LINE
8
DEFAULT_255_1_234
10
9.4899883
20
0.0584001
11
9.3301567
21
0.4840823
0
LINE
8
DEFAULT_255_1_234
10
9.3301567
20
0.4840823
11
9.3301567
21
0.5073743
0
LINE
8
DEFAULT_255_1_234
10
9.3357789
20
1.8799984
11
10.5052
21
1.8799984
0
LINE
8
DEFAULT_255_1_234
10
10.5052
20
1.8799984
11
10.5052
21
1.7249858
0
LINE
8
DEFAULT_255_1_234
10
10.5052
20
1.7249858
11
9.604039
21
1.1362594
0
LINE
8
DEFAULT_255_1_234
10
9.604039
20
1.1362594
11
10.5052
21
1.1362594
0
LINE
8
DEFAULT_255_1_234
10
10.5052
20
1.1362594
11
10.5052
21
0.9812469
0
LINE
8
DEFAULT_255_1_234
10
10.5052
20
0.9812469
11
9.3357789
21
0.9812469
0
LINE
8
DEFAULT_255_1_234
10
9.3357789
20
0.9812469
11
9.3357789
21
1.1362594
0
LINE
8
DEFAULT_255_1_234
10
9.3357789
20
1.1362594
11
10.2409558
21
1.7265922
0
LINE
8
DEFAULT_255_1_234
10
10.2409558
20
1.7265922
11
9.3357789
21
1.7265922
0
LINE
8
DEFAULT_255_1_234
10
9.3357789
20
1.7265922
11
9.3357789
21
1.8799984
0
LINE
8
DEFAULT_255_1_234
10
10.3839208
20
2.8815562
11
10.5052
21
2.8815562
0
LINE
8
DEFAULT_255_1_234
10
10.5052
20
2.8815562
11
10.5052
21
2.1153283
0
LINE
8
DEFAULT_255_1_234
10
10.5052
20
2.1153283
11
10.3983779
21
2.1153283
0
LINE
8
DEFAULT_255_1_234
10
10.3983779
20
2.1153283
11
9.9486005
21
2.5201279
0
LINE
8
DEFAULT_255_1_234
10
9.6803405
20
2.2414266
11
9.6803405
21
2.0928395
0
LINE
8
DEFAULT_255_1_234
10
10.0441782
20
2.6076739
11
10.3839208
21
2.2944361
0
LINE
8
DEFAULT_255_1_234
10
10.3839208
20
2.2944361
11
10.3839208
21
2.8815562
0
ARC
8
DEFAULT_255_1_234
10
8.7556473
20
1.1711113
40
1.8008286
50
48.5132453
51
50.7828378
0
ARC
8
DEFAULT_255_1_234
10
9.1859574
20
1.6998087
40
1.1191493
50
50.7372736
51
53.9737074
0
ARC
8
DEFAULT_255_1_234
10
9.4699639
20
2.0917943
40
0.6350923
50
53.8961724
51
58.6421089
0
ARC
8
DEFAULT_255_1_234
10
9.5961969
20
2.2964539
40
0.3946393
50
58.8299013
51
61.789948
0
ARC
8
DEFAULT_255_1_234
10
9.6476491
20
2.3961717
40
0.2824501
50
61.4255242
51
82.9364833
0
ARC
8
DEFAULT_255_1_234
10
9.6507024
20
2.4098218
40
0.2685315
50
83.2248685
51
90.0169286
0
ARC
8
DEFAULT_255_1_234
10
9.648405
20
2.4308095
40
0.2475536
50
89.4866256
51
105.9339782
0
ARC
8
DEFAULT_255_1_234
10
9.6347714
20
2.481508
40
0.1950618
50
106.1714718
51
133.5284424
0
ARC
8
DEFAULT_255_1_234
10
9.6270427
20
2.4892389
40
0.184134
50
133.4415429
51
173.1661404
0
ARC
8
DEFAULT_255_1_234
10
9.7007229
20
2.4758307
40
0.258926
50
172.160215
51
180.1505798
0
ARC
8
DEFAULT_255_1_234
10
9.7544135
20
2.4726734
40
0.3126255
50
179.5460705
51
192.5418777
0
ARC
8
DEFAULT_255_1_234
10
9.6513335
20
2.448382
40
0.2067346
50
192.1739365
51
219.2061916
0
ARC
8
DEFAULT_255_1_234
10
9.6388906
20
2.4404892
40
0.1921118
50
219.7279328
51
225.7542026
0
ARC
8
DEFAULT_255_1_234
10
9.6485955
20
2.452642
40
0.2075944
50
226.175737
51
256.3674722
0
ARC
8
DEFAULT_255_1_234
10
9.6755818
20
2.5533339
40
0.3118201
50
255.9092917
51
268.8683903
0
ARC
8
DEFAULT_255_1_234
10
9.6802821
20
2.63982
40
0.3983935
50
268.438168
51
270.0083905
0
ARC
8
DEFAULT_255_1_234
10
9.6763769
20
2.4996802
40
0.4068601
50
253.2878735
51
270.5581814
0
ARC
8
DEFAULT_255_1_234
10
9.654316
20
2.4195064
40
0.3237344
50
223.454115
51
252.9470031
0
ARC
8
DEFAULT_255_1_234
10
9.6733
20
2.4373605
40
0.349795
50
190.7869394
51
223.4384016
0
ARC
8
DEFAULT_255_1_234
10
9.8281681
20
2.4721376
40
0.5084616
50
179.6605301
51
191.3704185
0
ARC
8
DEFAULT_255_1_234
10
9.8220504
20
2.4787715
40
0.502348
50
168.2171172
51
180.4130393
0
ARC
8
DEFAULT_255_1_234
10
9.6596363
20
2.5142794
40
0.3361092
50
145.9268222
51
168.4888551
0
ARC
8
DEFAULT_255_1_234
10
9.6257676
20
2.5339234
40
0.2970617
50
137.9292255
51
145.4054003
0
ARC
8
DEFAULT_255_1_234
10
9.6154498
20
2.5440794
40
0.2825983
50
94.3347696
51
138.0560701
0
ARC
8
DEFAULT_255_1_234
10
9.6324399
20
2.4345188
40
0.393225
50
89.925209
51
95.5967654
0
ARC
8
DEFAULT_255_1_234
10
9.6268184
20
2.477408
40
0.3503892
50
67.8914096
51
88.9967724
0
ARC
8
DEFAULT_255_1_234
10
9.5221294
20
2.2060492
40
0.6412172
50
56.9135351
51
68.3505194
0
ARC
8
DEFAULT_255_1_234
10
9.2666716
20
1.8074796
40
1.1146189
50
49.6472867
51
57.095818
0
ARC
8
DEFAULT_255_1_234
10
8.9505
20
1.4241799
40
1.6114559
50
47.2586784
51
49.9046139
0
LINE
8
DEFAULT_255_1_234
10
15.6771208
20
-0.5712881
11
15.7984
21
-0.5712881
0
LINE
8
DEFAULT_255_1_234
10
15.7984
20
-0.5712881
11
15.7984
21
-1.337516
0
LINE
8
DEFAULT_255_1_234
10
15.7984
20
-1.337516
11
15.6915779
21
-1.337516
0
LINE
8
DEFAULT_255_1_234
10
15.6915779
20
-1.337516
11
15.2418005
21
-0.9327164
0
LINE
8
DEFAULT_255_1_234
10
14.9735405
20
-1.2114177
11
14.9735405
21
-1.3600048
0
LINE
8
DEFAULT_255_1_234
10
15.3373782
20
-0.8451704
11
15.6771208
21
-1.1584082
0
LINE
8
DEFAULT_255_1_234
10
15.6771208
20
-1.1584082
11
15.6771208
21
-0.5712881
0
ARC
8
DEFAULT_255_1_234
10
14.0488473
20
-2.281733
40
1.8008286
50
48.5132453
51
50.7828378
0
ARC
8
DEFAULT_255_1_234
10
14.4791574
20
-1.7530356
40
1.1191493
50
50.7372736
51
53.9737074
0
ARC
8
DEFAULT_255_1_234
10
14.7631639
20
-1.3610499
40
0.6350923
50
53.8961724
51
58.6421089
0
ARC
8
DEFAULT_255_1_234
10
14.8893969
20
-1.1563904
40
0.3946393
50
58.8299013
51
61.789948
0
ARC
8
DEFAULT_255_1_234
10
14.9408491
20
-1.0566726
40
0.2824501
50
61.4255242
51
82.9364833
0
ARC
8
DEFAULT_255_1_234
10
14.9439024
20
-1.0430225
40
0.2685315
50
83.2248685
51
90.0169286
0
ARC
8
DEFAULT_255_1_234
10
14.941605
20
-1.0220348
40
0.2475536
50
89.4866256
51
105.9339782
0
ARC
8
DEFAULT_255_1_234
10
14.9279714
20
-0.9713363
40
0.1950618
50
106.1714718
51
133.5284424
0
ARC
8
DEFAULT_255_1_234
10
14.9202427
20
-0.9636054
40
0.184134
50
133.4415429
51
173.1661404
0
ARC
8
DEFAULT_255_1_234
10
14.9939229
20
-0.9770136
40
0.258926
50
172.160215
51
180.1505798
0
ARC
8
DEFAULT_255_1_234
10
15.0476135
20
-0.9801709
40
0.3126255
50
179.5460705
51
192.5418777
0
ARC
8
DEFAULT_255_1_234
10
14.9445335
20
-1.0044623
40
0.2067346
50
192.1739365
51
219.2061916
0
ARC
8
DEFAULT_255_1_234
10
14.9320906
20
-1.0123551
40
0.1921118
50
219.7279328
51
225.7542026
0
ARC
8
DEFAULT_255_1_234
10
14.9417955
20
-1.0002023
40
0.2075944
50
226.175737
51
256.3674722
0
ARC
8
DEFAULT_255_1_234
10
14.9687818
20
-0.8995104
40
0.3118201
50
255.9092917
51
268.8683903
0
ARC
8
DEFAULT_255_1_234
10
14.9734821
20
-0.8130243
40
0.3983935
50
268.438168
51
270.0083905
0
ARC
8
DEFAULT_255_1_234
10
14.9695769
20
-0.9531641
40
0.4068601
50
253.2878735
51
270.5581814
0
ARC
8
DEFAULT_255_1_234
10
14.947516
20
-1.0333379
40
0.3237344
50
223.454115
51
252.9470031
0
ARC
8
DEFAULT_255_1_234
10
14.9665
20
-1.0154838
40
0.349795
50
190.7869394
51
223.4384016
0
ARC
8
DEFAULT_255_1_234
10
15.1213681
20
-0.9807066
40
0.5084616
50
179.6605301
51
191.3704185
0
ARC
8
DEFAULT_255_1_234
10
15.1152504
20
-0.9740727
40
0.502348
50
168.2171172
51
180.4130393
0
ARC
8
DEFAULT_255_1_234
10
14.9528363
20
-0.9385649
40
0.3361092
50
145.9268222
51
168.4888551
0
ARC
8
DEFAULT_255_1_234
10
14.9189676
20
-0.9189209
40
0.2970617
50
137.9292255
51
145.4054003
0
ARC
8
DEFAULT_255_1_234
10
14.9086498
20
-0.9087648
40
0.2825983
50
94.3347696
51
138.0560701
0
ARC
8
DEFAULT_255_1_234
10
14.9256399
20
-1.0183255
40
0.393225
50
89.925209
51
95.5967654
0
ARC
8
DEFAULT_255_1_234
10
14.9200184
20
-0.9754363
40
0.3503892
50
67.8914096
51
88.9967724
0
ARC
8
DEFAULT_255_1_234
10
14.8153294
20
-1.2467951
40
0.6412172
50
56.9135351
51
68.3505194
0
ARC
8
DEFAULT_255_1_234
10
14.5598716
20
-1.6453647
40
1.1146189
50
49.6472867
51
57.095818
0
ARC
8
DEFAULT_255_1_234
10
14.2437
20
-2.0286644
40
1.6114559
50
47.2586784
51
49.9046139
0
ARC
8
DEFAULT_255_1_234
10
15.7195435
20
-0.2883616
40
0.1070357
50
253.5417914
51
270.5078233
0
ARC
8
DEFAULT_255_1_234
10
15.7143579
20
-0.3075798
40
0.0871371
50
228.1647447
51
253.2316401
0
ARC
8
DEFAULT_255_1_234
10
15.7048466
20
-0.3188019
40
0.0724329
50
195.6856465
51
227.8494928
0
ARC
8
DEFAULT_255_1_234
10
15.7432871
20
-0.3069587
40
0.1126485
50
182.6088068
51
196.1990587
0
ARC
8
DEFAULT_255_1_234
10
15.7828226
20
-0.3039214
40
0.1522861
50
179.9660831
51
183.0733434
0
ARC
8
DEFAULT_255_1_234
10
15.760668
20
-0.3028519
40
0.130135
50
168.4379222
51
180.4311858
0
ARC
8
DEFAULT_255_1_234
10
15.7156412
20
-0.2931939
40
0.0840873
50
146.8960528
51
168.7359558
0
ARC
8
DEFAULT_255_1_234
10
15.7046123
20
-0.2868712
40
0.0713991
50
132.6499553
51
146.3125067
0
ARC
8
DEFAULT_255_1_234
10
15.7163854
20
-0.2996825
40
0.0887984
50
93.8142714
51
132.6365749
0
ARC
8
DEFAULT_255_1_234
10
15.7203847
20
-0.3283024
40
0.1176392
50
89.9476902
51
94.8305927
0
ARC
8
DEFAULT_255_1_234
10
15.7214459
20
-0.3056865
40
0.0950282
50
70.9376387
51
90.5750546
0
ARC
8
DEFAULT_255_1_234
10
15.7244808
20
-0.2944369
40
0.0834082
50
46.0805399
51
70.3842391
0
ARC
8
DEFAULT_255_1_234
10
15.7298191
20
-0.288629
40
0.0755219
50
15.8514865
51
45.9414755
0
ARC
8
DEFAULT_255_1_234
10
15.6918651
20
-0.3003719
40
0.115244
50
3.1292529
51
16.3135479
0
ARC
8
DEFAULT_255_1_234
10
15.6516951
20
-0.303702
40
0.1555398
50
359.9524064
51
3.5463789
0
ARC
8
DEFAULT_255_1_234
10
15.6735208
20
-0.3048068
40
0.1337177
50
349.0490813
51
0.4180302
0
ARC
8
DEFAULT_255_1_234
10
15.7212607
20
-0.3144405
40
0.0850178
50
329.7587791
51
349.311372
0
ARC
8
DEFAULT_255_1_234
10
15.7363518
20
-0.3225374
40
0.0679053
50
312.6244131
51
329.247817
0
ARC
8
DEFAULT_255_1_234
10
15.7240381
20
-0.3090999
40
0.0861314
50
272.9227855
51
312.598345
0
ARC
8
DEFAULT_255_1_234
10
15.7205627
20
-0.282238
40
0.113155
50
269.9642935
51
273.9868025
0
LINE
8
DEFAULT_255_1_234
10
14.6233567
20
0.5073743
11
15.7984
21
0.5073743
0
LINE
8
DEFAULT_255_1_234
10
15.7984
20
0.5073743
11
15.7984
21
0.357984
0
LINE
8
DEFAULT_255_1_234
10
15.7984
20
0.357984
11
14.8080867
21
0.357984
0
LINE
8
DEFAULT_255_1_234
10
14.8080867
20
0.357984
11
14.9181215
21
0.0584001
0
LINE
8
DEFAULT_255_1_234
10
14.9181215
20
0.0584001
11
14.7831883
21
0.0584001
0
LINE
8
DEFAULT_255_1_234
10
14.7831883
20
0.0584001
11
14.6233567
21
0.4840823
0
LINE
8
DEFAULT_255_1_234
10
14.6233567
20
0.4840823
11
14.6233567
21
0.5073743
0
LINE
8
DEFAULT_255_1_234
10
14.6289789
20
1.8799984
11
15.7984
21
1.8799984
0
LINE
8
DEFAULT_255_1_234
10
15.7984
20
1.8799984
11
15.7984
21
1.7249858
0
LINE
8
DEFAULT_255_1_234
10
15.7984
20
1.7249858
11
14.897239
21
1.1362594
0
LINE
8
DEFAULT_255_1_234
10
14.897239
20
1.1362594
11
15.7984
21
1.1362594
0
LINE
8
DEFAULT_255_1_234
10
15.7984
20
1.1362594
11
15.7984
21
0.9812469
0
LINE
8
DEFAULT_255_1_234
10
15.7984
20
0.9812469
11
14.6289789
21
0.9812469
0
LINE
8
DEFAULT_255_1_234
10
14.6289789
20
0.9812469
11
14.6289789
21
1.1362594
0
LINE
8
DEFAULT_255_1_234
10
14.6289789
20
1.1362594
11
15.5341558
21
1.7265922
0
LINE
8
DEFAULT_255_1_234
10
15.5341558
20
1.7265922
11
14.6289789
21
1.7265922
0
LINE
8
DEFAULT_255_1_234
10
14.6289789
20
1.7265922
11
14.6289789
21
1.8799984
0
LINE
8
DEFAULT_255_1_234
10
15.2626831
20
2.3313821
11
15.1414038
21
2.3313821
0
LINE
8
DEFAULT_255_1_234
10
15.1414038
20
2.3313821
11
15.1414038
21
2.4430232
0
LINE
8
DEFAULT_255_1_234
10
14.9357913
20
2.252671
11
14.9357913
21
2.1040839
0
LINE
8
DEFAULT_255_1_234
10
15.4899812
20
2.0936426
11
15.4899813
21
2.243033
0
LINE
8
DEFAULT_255_1_234
10
15.2626831
20
2.4430232
11
15.2626831
21
2.3313821
0
ARC
8
DEFAULT_255_1_234
10
14.8021287
20
2.4401099
40
0.3392876
50
0.4919872
51
11.8951556
0
ARC
8
DEFAULT_255_1_234
10
14.9123298
20
2.464236
40
0.2264817
50
11.6691735
51
31.2943132
0
ARC
8
DEFAULT_255_1_234
10
14.9434696
20
2.4812571
40
0.1910381
50
31.7833094
51
41.7545298
0
ARC
8
DEFAULT_255_1_234
10
14.9536252
20
2.4904146
40
0.1773635
50
41.7323931
51
84.2802411
0
ARC
8
DEFAULT_255_1_234
10
14.9411278
20
2.4177772
40
0.2509385
50
83.0937916
51
90.1181479
0
ARC
8
DEFAULT_255_1_234
10
14.9363614
20
2.3716557
40
0.2970898
50
89.1805295
51
105.0453146
0
ARC
8
DEFAULT_255_1_234
10
14.8971008
20
2.5062394
40
0.1569564
50
103.9577229
51
167.6713066
0
ARC
8
DEFAULT_255_1_234
10
15.0356051
20
2.4675923
40
0.3006298
50
166.1116566
51
180.7026153
0
ARC
8
DEFAULT_255_1_234
10
15.0082455
20
2.4616761
40
0.2732568
50
179.5324876
51
193.531937
0
ARC
8
DEFAULT_255_1_234
10
14.9283116
20
2.4416205
40
0.1908508
50
193.2931773
51
223.5619022
0
ARC
8
DEFAULT_255_1_234
10
14.9223625
20
2.4371693
40
0.1834746
50
223.8349307
51
263.5344437
0
ARC
8
DEFAULT_255_1_234
10
14.9351787
20
2.5094737
40
0.2568033
50
262.5096846
51
270.1366907
0
ARC
8
DEFAULT_255_1_234
10
14.9317378
20
2.414363
40
0.3103056
50
245.3484492
51
270.7484736
0
ARC
8
DEFAULT_255_1_234
10
14.9346154
20
2.409472
40
0.3070957
50
221.5744599
51
244.4798489
0
ARC
8
DEFAULT_255_1_234
10
14.966269
20
2.4407867
40
0.3515643
50
186.9875458
51
221.9690667
0
ARC
8
DEFAULT_255_1_234
10
15.0908364
20
2.4627347
40
0.4779224
50
179.8596053
51
187.7825159
0
ARC
8
DEFAULT_255_1_234
10
15.1170384
20
2.467541
40
0.5041361
50
168.3655447
51
180.4131539
0
ARC
8
DEFAULT_255_1_234
10
14.9511113
20
2.5033328
40
0.3344039
50
146.6229102
51
168.638727
0
ARC
8
DEFAULT_255_1_234
10
14.9135195
20
2.5248271
40
0.2912001
50
137.0253525
51
146.0854072
0
ARC
8
DEFAULT_255_1_234
10
14.9095777
20
2.5268051
40
0.2869704
50
100.9208013
51
136.7778124
0
ARC
8
DEFAULT_255_1_234
10
14.9411143
20
2.3904118
40
0.426899
50
89.6364486
51
101.6087304
0
ARC
8
DEFAULT_255_1_234
10
14.9426248
20
2.5738962
40
0.243409
50
62.3549906
51
89.7179418
0
ARC
8
DEFAULT_255_1_234
10
14.9117858
20
2.5088563
40
0.3153459
50
55.2333722
51
62.8745602
0
ARC
8
DEFAULT_255_1_234
10
14.9224172
20
2.5241187
40
0.2967456
50
22.9802137
51
55.2392345
0
ARC
8
DEFAULT_255_1_234
10
14.8690137
20
2.4966561
40
0.3566604
50
22.5402179
51
23.6924929
0
ARC
8
DEFAULT_255_1_234
10
15.5144909
20
2.5359157
40
0.3307468
50
147.6435486
51
162.8625112
0
ARC
8
DEFAULT_255_1_234
10
15.4570451
20
2.5713657
40
0.2632492
50
126.7248896
51
147.4697979
0
ARC
8
DEFAULT_255_1_234
10
15.455778
20
2.5702289
40
0.2634081
50
98.0545065
51
126.356114
0
ARC
8
DEFAULT_255_1_234
10
15.4712826
20
2.4839475
40
0.3510261
50
89.8320645
51
98.5869982
0
ARC
8
DEFAULT_255_1_234
10
15.4760899
20
2.4464251
40
0.3885653
50
73.9829931
51
90.5571613
0
ARC
8
DEFAULT_255_1_234
10
15.5003562
20
2.5350448
40
0.2966924
50
41.6359546
51
73.7651759
0
ARC
8
DEFAULT_255_1_234
10
15.4576898
20
2.4972017
40
0.3537231
50
9.7829875
51
41.6255694
0
ARC
8
DEFAULT_255_1_234
10
15.313972
20
2.4670793
40
0.5004971
50
359.7286406
51
10.3856417
0
ARC
8
DEFAULT_255_1_234
10
15.3181004
20
2.4608866
40
0.4963778
50
346.6828919
51
0.4412052
0
ARC
8
DEFAULT_255_1_234
10
15.4565606
20
2.4270162
40
0.3538406
50
319.4223008
51
346.8556159
0
ARC
8
DEFAULT_255_1_234
10
15.5032264
20
2.3855555
40
0.2914296
50
271.818294
51
319.6455059
0
ARC
8
DEFAULT_255_1_234
10
15.4901504
20
2.4895511
40
0.3959084
50
269.9755256
51
273.2323064
0
ARC
8
DEFAULT_255_1_234
10
15.4921963
20
2.4723257
40
0.2293034
50
269.4465117
51
286.2869258
0
ARC
8
DEFAULT_255_1_234
10
15.5055349
20
2.4235665
40
0.1787621
50
286.5661473
51
317.705904
0
ARC
8
DEFAULT_255_1_234
10
15.4871845
20
2.439976
40
0.2033784
50
317.7652068
51
347.8762805
0
ARC
8
DEFAULT_255_1_234
10
15.3928844
20
2.462473
40
0.3003081
50
347.4584385
51
0.426602
0
ARC
8
DEFAULT_255_1_234
10
15.3639004
20
2.4670296
40
0.329292
50
359.5962073
51
10.8789248
0
ARC
8
DEFAULT_255_1_234
10
15.4785315
20
2.4899825
40
0.2123908
50
10.6346389
51
29.8595945
0
ARC
8
DEFAULT_255_1_234
10
15.5147788
20
2.5090731
40
0.171457
50
30.3576302
51
44.5517981
0
ARC
8
DEFAULT_255_1_234
10
15.5087081
20
2.5007791
40
0.1816095
50
45.0728369
51
75.0431014
0
ARC
8
DEFAULT_255_1_234
10
15.4818159
20
2.4084606
40
0.2777492
50
74.5986631
51
87.9269593
0
ARC
8
DEFAULT_255_1_234
10
15.4756724
20
2.3188932
40
0.3674917
50
87.4748886
51
90.0231117
0
ARC
8
DEFAULT_255_1_234
10
15.4732321
20
2.4212041
40
0.2651907
50
89.5047933
51
103.4239635
0
ARC
8
DEFAULT_255_1_234
10
15.4510522
20
2.5078685
40
0.1757509
50
102.9498199
51
138.7551375
0
ARC
8
DEFAULT_255_1_234
10
15.47596
20
2.4896419
40
0.2065134
50
139.5088623
51
162.1836453
0
ARC
8
DEFAULT_255_1_234
10
15.5821709
20
2.4538572
40
0.3185836
50
161.9010081
51
174.3554254
0
ARC
8
DEFAULT_255_1_234
10
15.7182674
20
2.4377204
40
0.4556151
50
174.0193428
51
179.333121
0
LINE
8
DEFAULT_255_1_234
10
7.7391208
20
-0.5803881
11
7.8604
21
-0.5803881
0
LINE
8
DEFAULT_255_1_234
10
7.8604
20
-0.5803881
11
7.8604
21
-1.346616
0
LINE
8
DEFAULT_255_1_234
10
7.8604
20
-1.346616
11
7.7535779
21
-1.346616
0
LINE
8
DEFAULT_255_1_234
10
7.7535779
20
-1.346616
11
7.3038005
21
-0.9418164
0
LINE
8
DEFAULT_255_1_234
10
7.0355405
20
-1.2205177
11
7.0355405
21
-1.3691048
0
LINE
8
DEFAULT_255_1_234
10
7.3993782
20
-0.8542704
11
7.7391208
21
-1.1675082
0
LINE
8
DEFAULT_255_1_234
10
7.7391208
20
-1.1675082
11
7.7391208
21
-0.5803881
0
ARC
8
DEFAULT_255_1_234
10
6.1108473
20
-2.290833
40
1.8008286
50
48.5132453
51
50.7828378
0
ARC
8
DEFAULT_255_1_234
10
6.5411574
20
-1.7621356
40
1.1191493
50
50.7372736
51
53.9737074
0
ARC
8
DEFAULT_255_1_234
10
6.8251639
20
-1.3701499
40
0.6350923
50
53.8961724
51
58.6421089
0
ARC
8
DEFAULT_255_1_234
10
6.9513969
20
-1.1654904
40
0.3946393
50
58.8299013
51
61.789948
0
ARC
8
DEFAULT_255_1_234
10
7.0028491
20
-1.0657726
40
0.2824501
50
61.4255242
51
82.9364833
0
ARC
8
DEFAULT_255_1_234
10
7.0059024
20
-1.0521225
40
0.2685315
50
83.2248685
51
90.0169286
0
ARC
8
DEFAULT_255_1_234
10
7.003605
20
-1.0311348
40
0.2475536
50
89.4866256
51
105.9339782
0
ARC
8
DEFAULT_255_1_234
10
6.9899714
20
-0.9804363
40
0.1950618
50
106.1714718
51
133.5284424
0
ARC
8
DEFAULT_255_1_234
10
6.9822427
20
-0.9727054
40
0.184134
50
133.4415429
51
173.1661404
0
ARC
8
DEFAULT_255_1_234
10
7.0559229
20
-0.9861136
40
0.258926
50
172.160215
51
180.1505798
0
ARC
8
DEFAULT_255_1_234
10
7.1096135
20
-0.9892709
40
0.3126255
50
179.5460705
51
192.5418777
0
ARC
8
DEFAULT_255_1_234
10
7.0065335
20
-1.0135623
40
0.2067346
50
192.1739365
51
219.2061916
0
ARC
8
DEFAULT_255_1_234
10
6.9940906
20
-1.0214551
40
0.1921118
50
219.7279328
51
225.7542026
0
ARC
8
DEFAULT_255_1_234
10
7.0037955
20
-1.0093023
40
0.2075944
50
226.175737
51
256.3674722
0
ARC
8
DEFAULT_255_1_234
10
7.0307818
20
-0.9086104
40
0.3118201
50
255.9092917
51
268.8683903
0
ARC
8
DEFAULT_255_1_234
10
7.0354821
20
-0.8221243
40
0.3983935
50
268.438168
51
270.0083905
0
ARC
8
DEFAULT_255_1_234
10
7.0315769
20
-0.9622641
40
0.4068601
50
253.2878735
51
270.5581814
0
ARC
8
DEFAULT_255_1_234
10
7.009516
20
-1.0424379
40
0.3237344
50
223.454115
51
252.9470031
0
ARC
8
DEFAULT_255_1_234
10
7.0285
20
-1.0245838
40
0.349795
50
190.7869394
51
223.4384016
0
ARC
8
DEFAULT_255_1_234
10
7.1833681
20
-0.9898066
40
0.5084616
50
179.6605301
51
191.3704185
0
ARC
8
DEFAULT_255_1_234
10
7.1772504
20
-0.9831727
40
0.502348
50
168.2171172
51
180.4130393
0
ARC
8
DEFAULT_255_1_234
10
7.0148363
20
-0.9476649
40
0.3361092
50
145.9268222
51
168.4888551
0
ARC
8
DEFAULT_255_1_234
10
6.9809676
20
-0.9280209
40
0.2970617
50
137.9292255
51
145.4054003
0
ARC
8
DEFAULT_255_1_234
10
6.9706498
20
-0.9178648
40
0.2825983
50
94.3347696
51
138.0560701
0
ARC
8
DEFAULT_255_1_234
10
6.9876399
20
-1.0274255
40
0.393225
50
89.925209
51
95.5967654
0
ARC
8
DEFAULT_255_1_234
10
6.9820184
20
-0.9845363
40
0.3503892
50
67.8914096
51
88.9967724
0
ARC
8
DEFAULT_255_1_234
10
6.8773294
20
-1.2558951
40
0.6412172
50
56.9135351
51
68.3505194
0
ARC
8
DEFAULT_255_1_234
10
6.6218716
20
-1.6544647
40
1.1146189
50
49.6472867
51
57.095818
0
ARC
8
DEFAULT_255_1_234
10
6.3057
20
-2.0377644
40
1.6114559
50
47.2586784
51
49.9046139
0
ARC
8
DEFAULT_255_1_234
10
7.7815435
20
-0.2974616
40
0.1070357
50
253.5417914
51
270.5078233
0
ARC
8
DEFAULT_255_1_234
10
7.7763579
20
-0.3166798
40
0.0871371
50
228.1647447
51
253.2316401
0
ARC
8
DEFAULT_255_1_234
10
7.7668466
20
-0.3279019
40
0.0724329
50
195.6856465
51
227.8494928
0
ARC
8
DEFAULT_255_1_234
10
7.8052871
20
-0.3160587
40
0.1126485
50
182.6088068
51
196.1990587
0
ARC
8
DEFAULT_255_1_234
10
7.8448226
20
-0.3130214
40
0.1522861
50
179.9660831
51
183.0733434
0
ARC
8
DEFAULT_255_1_234
10
7.822668
20
-0.3119519
40
0.130135
50
168.4379222
51
180.4311858
0
ARC
8
DEFAULT_255_1_234
10
7.7776412
20
-0.3022939
40
0.0840873
50
146.8960528
51
168.7359558
0
ARC
8
DEFAULT_255_1_234
10
7.7666123
20
-0.2959712
40
0.0713991
50
132.6499553
51
146.3125067
0
ARC
8
DEFAULT_255_1_234
10
7.7783854
20
-0.3087825
40
0.0887984
50
93.8142714
51
132.6365749
0
ARC
8
DEFAULT_255_1_234
10
7.7823847
20
-0.3374024
40
0.1176392
50
89.9476902
51
94.8305927
0
ARC
8
DEFAULT_255_1_234
10
7.7834459
20
-0.3147865
40
0.0950282
50
70.9376387
51
90.5750546
0
ARC
8
DEFAULT_255_1_234
10
7.7864808
20
-0.3035369
40
0.0834082
50
46.0805399
51
70.3842391
0
ARC
8
DEFAULT_255_1_234
10
7.7918191
20
-0.297729
40
0.0755219
50
15.8514865
51
45.9414755
0
ARC
8
DEFAULT_255_1_234
10
7.7538651
20
-0.3094719
40
0.115244
50
3.1292529
51
16.3135479
0
ARC
8
DEFAULT_255_1_234
10
7.7136951
20
-0.312802
40
0.1555398
50
359.9524064
51
3.5463789
0
ARC
8
DEFAULT_255_1_234
10
7.7355208
20
-0.3139068
40
0.1337177
50
349.0490813
51
0.4180302
0
ARC
8
DEFAULT_255_1_234
10
7.7832607
20
-0.3235405
40
0.0850178
50
329.7587791
51
349.311372
0
ARC
8
DEFAULT_255_1_234
10
7.7983518
20
-0.3316374
40
0.0679053
50
312.6244131
51
329.247817
0
ARC
8
DEFAULT_255_1_234
10
7.7860381
20
-0.3181999
40
0.0861314
50
272.9227855
51
312.598345
0
ARC
8
DEFAULT_255_1_234
10
7.7825627
20
-0.291338
40
0.113155
50
269.9642935
51
273.9868025
0
LINE
8
DEFAULT_255_1_234
10
7.7391208
20
0.7761725
11
7.8604
21
0.7761725
0
LINE
8
DEFAULT_255_1_234
10
7.8604
20
0.7761725
11
7.8604
21
0.0099446
0
LINE
8
DEFAULT_255_1_234
10
7.8604
20
0.0099446
11
7.7535779
21
0.0099446
0
LINE
8
DEFAULT_255_1_234
10
7.7535779
20
0.0099446
11
7.3038005
21
0.4147442
0
LINE
8
DEFAULT_255_1_234
10
7.0355405
20
0.1360429
11
7.0355405
21
-0.0125442
0
LINE
8
DEFAULT_255_1_234
10
7.3993782
20
0.5022902
11
7.7391208
21
0.1890524
0
LINE
8
DEFAULT_255_1_234
10
7.7391208
20
0.1890524
11
7.7391208
21
0.7761725
0
ARC
8
DEFAULT_255_1_234
10
6.1108473
20
-0.9342724
40
1.8008286
50
48.5132453
51
50.7828378
0
ARC
8
DEFAULT_255_1_234
10
6.5411574
20
-0.405575
40
1.1191493
50
50.7372736
51
53.9737074
0
ARC
8
DEFAULT_255_1_234
10
6.8251639
20
-0.0135894
40
0.6350923
50
53.8961724
51
58.6421089
0
ARC
8
DEFAULT_255_1_234
10
6.9513969
20
0.1910702
40
0.3946393
50
58.8299013
51
61.789948
0
ARC
8
DEFAULT_255_1_234
10
7.0028491
20
0.290788
40
0.2824501
50
61.4255242
51
82.9364833
0
ARC
8
DEFAULT_255_1_234
10
7.0059024
20
0.3044381
40
0.2685315
50
83.2248685
51
90.0169286
0
ARC
8
DEFAULT_255_1_234
10
7.003605
20
0.3254258
40
0.2475536
50
89.4866256
51
105.9339782
0
ARC
8
DEFAULT_255_1_234
10
6.9899714
20
0.3761243
40
0.1950618
50
106.1714718
51
133.5284424
0
ARC
8
DEFAULT_255_1_234
10
6.9822427
20
0.3838552
40
0.184134
50
133.4415429
51
173.1661404
0
ARC
8
DEFAULT_255_1_234
10
7.0559229
20
0.370447
40
0.258926
50
172.160215
51
180.1505798
0
ARC
8
DEFAULT_255_1_234
10
7.1096135
20
0.3672897
40
0.3126255
50
179.5460705
51
192.5418777
0
ARC
8
DEFAULT_255_1_234
10
7.0065335
20
0.3429983
40
0.2067346
50
192.1739365
51
219.2061916
0
ARC
8
DEFAULT_255_1_234
10
6.9940906
20
0.3351055
40
0.1921118
50
219.7279328
51
225.7542026
0
ARC
8
DEFAULT_255_1_234
10
7.0037955
20
0.3472583
40
0.2075944
50
226.175737
51
256.3674722
0
ARC
8
DEFAULT_255_1_234
10
7.0307818
20
0.4479502
40
0.3118201
50
255.9092917
51
268.8683903
0
ARC
8
DEFAULT_255_1_234
10
7.0354821
20
0.5344363
40
0.3983935
50
268.438168
51
270.0083905
0
ARC
8
DEFAULT_255_1_234
10
7.0315769
20
0.3942965
40
0.4068601
50
253.2878735
51
270.5581814
0
ARC
8
DEFAULT_255_1_234
10
7.009516
20
0.3141227
40
0.3237344
50
223.454115
51
252.9470031
0
ARC
8
DEFAULT_255_1_234
10
7.0285
20
0.3319768
40
0.349795
50
190.7869394
51
223.4384016
0
ARC
8
DEFAULT_255_1_234
10
7.1833681
20
0.366754
40
0.5084616
50
179.6605301
51
191.3704185
0
ARC
8
DEFAULT_255_1_234
10
7.1772504
20
0.3733878
40
0.502348
50
168.2171172
51
180.4130393
0
ARC
8
DEFAULT_255_1_234
10
7.0148363
20
0.4088957
40
0.3361092
50
145.9268222
51
168.4888551
0
ARC
8
DEFAULT_255_1_234
10
6.9809676
20
0.4285397
40
0.2970617
50
137.9292255
51
145.4054003
0
ARC
8
DEFAULT_255_1_234
10
6.9706498
20
0.4386957
40
0.2825983
50
94.3347696
51
138.0560701
0
ARC
8
DEFAULT_255_1_234
10
6.9876399
20
0.3291351
40
0.393225
50
89.925209
51
95.5967654
0
ARC
8
DEFAULT_255_1_234
10
6.9820184
20
0.3720243
40
0.3503892
50
67.8914096
51
88.9967724
0
ARC
8
DEFAULT_255_1_234
10
6.8773294
20
0.1006655
40
0.6412172
50
56.9135351
51
68.3505194
0
ARC
8
DEFAULT_255_1_234
10
6.6218716
20
-0.2979041
40
1.1146189
50
49.6472867
51
57.095818
0
ARC
8
DEFAULT_255_1_234
10
6.3057
20
-0.6812038
40
1.6114559
50
47.2586784
51
49.9046139
0
LINE
8
DEFAULT_255_1_234
10
6.6909789
20
1.8708984
11
7.8604
21
1.8708984
0
LINE
8
DEFAULT_255_1_234
10
7.8604
20
1.8708984
11
7.8604
21
1.7158858
0
LINE
8
DEFAULT_255_1_234
10
7.8604
20
1.7158858
11
6.959239
21
1.1271594
0
LINE
8
DEFAULT_255_1_234
10
6.959239
20
1.1271594
11
7.8604
21
1.1271594
0
LINE
8
DEFAULT_255_1_234
10
7.8604
20
1.1271594
11
7.8604
21
0.9721469
0
LINE
8
DEFAULT_255_1_234
10
7.8604
20
0.9721469
11
6.6909789
21
0.9721469
0
LINE
8
DEFAULT_255_1_234
10
6.6909789
20
0.9721469
11
6.6909789
21
1.1271594
0
LINE
8
DEFAULT_255_1_234
10
6.6909789
20
1.1271594
11
7.5961558
21
1.7174922
0
LINE
8
DEFAULT_255_1_234
10
7.5961558
20
1.7174922
11
6.6909789
21
1.7174922
0
LINE
8
DEFAULT_255_1_234
10
6.6909789
20
1.7174922
11
6.6909789
21
1.8708984
0
LINE
8
DEFAULT_255_1_234
10
6.6853567
20
2.594558
11
7.8604
21
2.594558
0
LINE
8
DEFAULT_255_1_234
10
7.8604
20
2.594558
11
7.8604
21
2.4451677
0
LINE
8
DEFAULT_255_1_234
10
7.8604
20
2.4451677
11
6.8700867
21
2.4451677
0
LINE
8
DEFAULT_255_1_234
10
6.8700867
20
2.4451677
11
6.9801215
21
2.1455838
0
LINE
8
DEFAULT_255_1_234
10
6.9801215
20
2.1455838
11
6.8451883
21
2.1455838
0
LINE
8
DEFAULT_255_1_234
10
6.8451883
20
2.1455838
11
6.6853567
21
2.571266
0
LINE
8
DEFAULT_255_1_234
10
6.6853567
20
2.571266
11
6.6853567
21
2.594558
0
LINE
8
DEFAULT_255_1_234
10
13.0305208
20
-0.5712881
11
13.1518
21
-0.5712881
0
LINE
8
DEFAULT_255_1_234
10
13.1518
20
-0.5712881
11
13.1518
21
-1.337516
0
LINE
8
DEFAULT_255_1_234
10
13.1518
20
-1.337516
11
13.0449779
21
-1.337516
0
LINE
8
DEFAULT_255_1_234
10
13.0449779
20
-1.337516
11
12.5952005
21
-0.9327164
0
LINE
8
DEFAULT_255_1_234
10
12.3269405
20
-1.2114177
11
12.3269405
21
-1.3600048
0
LINE
8
DEFAULT_255_1_234
10
12.6907782
20
-0.8451704
11
13.0305208
21
-1.1584082
0
LINE
8
DEFAULT_255_1_234
10
13.0305208
20
-1.1584082
11
13.0305208
21
-0.5712881
0
ARC
8
DEFAULT_255_1_234
10
11.4022473
20
-2.281733
40
1.8008286
50
48.5132453
51
50.7828378
0
ARC
8
DEFAULT_255_1_234
10
11.8325574
20
-1.7530356
40
1.1191493
50
50.7372736
51
53.9737074
0
ARC
8
DEFAULT_255_1_234
10
12.1165639
20
-1.3610499
40
0.6350923
50
53.8961724
51
58.6421089
0
ARC
8
DEFAULT_255_1_234
10
12.2427969
20
-1.1563904
40
0.3946393
50
58.8299013
51
61.789948
0
ARC
8
DEFAULT_255_1_234
10
12.2942491
20
-1.0566726
40
0.2824501
50
61.4255242
51
82.9364833
0
ARC
8
DEFAULT_255_1_234
10
12.2973024
20
-1.0430225
40
0.2685315
50
83.2248685
51
90.0169286
0
ARC
8
DEFAULT_255_1_234
10
12.295005
20
-1.0220348
40
0.2475536
50
89.4866256
51
105.9339782
0
ARC
8
DEFAULT_255_1_234
10
12.2813714
20
-0.9713363
40
0.1950618
50
106.1714718
51
133.5284424
0
ARC
8
DEFAULT_255_1_234
10
12.2736427
20
-0.9636054
40
0.184134
50
133.4415429
51
173.1661404
0
ARC
8
DEFAULT_255_1_234
10
12.3473229
20
-0.9770136
40
0.258926
50
172.160215
51
180.1505798
0
ARC
8
DEFAULT_255_1_234
10
12.4010135
20
-0.9801709
40
0.3126255
50
179.5460705
51
192.5418777
0
ARC
8
DEFAULT_255_1_234
10
12.2979335
20
-1.0044623
40
0.2067346
50
192.1739365
51
219.2061916
0
ARC
8
DEFAULT_255_1_234
10
12.2854906
20
-1.0123551
40
0.1921118
50
219.7279328
51
225.7542026
0
ARC
8
DEFAULT_255_1_234
10
12.2951955
20
-1.0002023
40
0.2075944
50
226.175737
51
256.3674722
0
ARC
8
DEFAULT_255_1_234
10
12.3221818
20
-0.8995104
40
0.3118201
50
255.9092917
51
268.8683903
0
ARC
8
DEFAULT_255_1_234
10
12.3268821
20
-0.8130243
40
0.3983935
50
268.438168
51
270.0083905
0
ARC
8
DEFAULT_255_1_234
10
12.3229769
20
-0.9531641
40
0.4068601
50
253.2878735
51
270.5581814
0
ARC
8
DEFAULT_255_1_234
10
12.300916
20
-1.0333379
40
0.3237344
50
223.454115
51
252.9470031
0
ARC
8
DEFAULT_255_1_234
10
12.3199
20
-1.0154838
40
0.349795
50
190.7869394
51
223.4384016
0
ARC
8
DEFAULT_255_1_234
10
12.4747681
20
-0.9807066
40
0.5084616
50
179.6605301
51
191.3704185
0
ARC
8
DEFAULT_255_1_234
10
12.4686504
20
-0.9740727
40
0.502348
50
168.2171172
51
180.4130393
0
ARC
8
DEFAULT_255_1_234
10
12.3062363
20
-0.9385649
40
0.3361092
50
145.9268222
51
168.4888551
0
ARC
8
DEFAULT_255_1_234
10
12.2723676
20
-0.9189209
40
0.2970617
50
137.9292255
51
145.4054003
0
ARC
8
DEFAULT_255_1_234
10
12.2620498
20
-0.9087648
40
0.2825983
50
94.3347696
51
138.0560701
0
ARC
8
DEFAULT_255_1_234
10
12.2790399
20
-1.0183255
40
0.393225
50
89.925209
51
95.5967654
0
ARC
8
DEFAULT_255_1_234
10
12.2734184
20
-0.9754363
40
0.3503892
50
67.8914096
51
88.9967724
0
ARC
8
DEFAULT_255_1_234
10
12.1687294
20
-1.2467951
40
0.6412172
50
56.9135351
51
68.3505194
0
ARC
8
DEFAULT_255_1_234
10
11.9132716
20
-1.6453647
40
1.1146189
50
49.6472867
51
57.095818
0
ARC
8
DEFAULT_255_1_234
10
11.5971
20
-2.0286644
40
1.6114559
50
47.2586784
51
49.9046139
0
ARC
8
DEFAULT_255_1_234
10
13.0729435
20
-0.2883616
40
0.1070357
50
253.5417914
51
270.5078233
0
ARC
8
DEFAULT_255_1_234
10
13.0677579
20
-0.3075798
40
0.0871371
50
228.1647447
51
253.2316401
0
ARC
8
DEFAULT_255_1_234
10
13.0582466
20
-0.3188019
40
0.0724329
50
195.6856465
51
227.8494928
0
ARC
8
DEFAULT_255_1_234
10
13.0966871
20
-0.3069587
40
0.1126485
50
182.6088068
51
196.1990587
0
ARC
8
DEFAULT_255_1_234
10
13.1362226
20
-0.3039214
40
0.1522861
50
179.9660831
51
183.0733434
0
ARC
8
DEFAULT_255_1_234
10
13.114068
20
-0.3028519
40
0.130135
50
168.4379222
51
180.4311858
0
ARC
8
DEFAULT_255_1_234
10
13.0690412
20
-0.2931939
40
0.0840873
50
146.8960528
51
168.7359558
0
ARC
8
DEFAULT_255_1_234
10
13.0580123
20
-0.2868712
40
0.0713991
50
132.6499553
51
146.3125067
0
ARC
8
DEFAULT_255_1_234
10
13.0697854
20
-0.2996825
40
0.0887984
50
93.8142714
51
132.6365749
0
ARC
8
DEFAULT_255_1_234
10
13.0737847
20
-0.3283024
40
0.1176392
50
89.9476902
51
94.8305927
0
ARC
8
DEFAULT_255_1_234
10
13.0748459
20
-0.3056865
40
0.0950282
50
70.9376387
51
90.5750546
0
ARC
8
DEFAULT_255_1_234
10
13.0778808
20
-0.2944369
40
0.0834082
50
46.0805399
51
70.3842391
0
ARC
8
DEFAULT_255_1_234
10
13.0832191
20
-0.288629
40
0.0755219
50
15.8514865
51
45.9414755
0
ARC
8
DEFAULT_255_1_234
10
13.0452651
20
-0.3003719
40
0.115244
50
3.1292529
51
16.3135479
0
ARC
8
DEFAULT_255_1_234
10
13.0050951
20
-0.303702
40
0.1555398
50
359.9524064
51
3.5463789
0
ARC
8
DEFAULT_255_1_234
10
13.0269208
20
-0.3048068
40
0.1337177
50
349.0490813
51
0.4180302
0
ARC
8
DEFAULT_255_1_234
10
13.0746607
20
-0.3144405
40
0.0850178
50
329.7587791
51
349.311372
0
ARC
8
DEFAULT_255_1_234
10
13.0897518
20
-0.3225374
40
0.0679053
50
312.6244131
51
329.247817
0
ARC
8
DEFAULT_255_1_234
10
13.0774381
20
-0.3090999
40
0.0861314
50
272.9227855
51
312.598345
0
ARC
8
DEFAULT_255_1_234
10
13.0739627
20
-0.282238
40
0.113155
50
269.9642935
51
273.9868025
0
LINE
8
DEFAULT_255_1_234
10
13.0305208
20
0.7852725
11
13.1518
21
0.7852725
0
LINE
8
DEFAULT_255_1_234
10
13.1518
20
0.7852725
11
13.1518
21
0.0190446
0
LINE
8
DEFAULT_255_1_234
10
13.1518
20
0.0190446
11
13.0449779
21
0.0190446
0
LINE
8
DEFAULT_255_1_234
10
13.0449779
20
0.0190446
11
12.5952005
21
0.4238442
0
LINE
8
DEFAULT_255_1_234
10
12.3269405
20
0.1451429
11
12.3269405
21
-0.0034442
0
LINE
8
DEFAULT_255_1_234
10
12.6907782
20
0.5113902
11
13.0305208
21
0.1981524
0
LINE
8
DEFAULT_255_1_234
10
13.0305208
20
0.1981524
11
13.0305208
21
0.7852725
0
ARC
8
DEFAULT_255_1_234
10
11.4022473
20
-0.9251724
40
1.8008286
50
48.5132453
51
50.7828378
0
ARC
8
DEFAULT_255_1_234
10
11.8325574
20
-0.396475
40
1.1191493
50
50.7372736
51
53.9737074
0
ARC
8
DEFAULT_255_1_234
10
12.1165639
20
-0.0044894
40
0.6350923
50
53.8961724
51
58.6421089
0
ARC
8
DEFAULT_255_1_234
10
12.2427969
20
0.2001702
40
0.3946393
50
58.8299013
51
61.789948
0
ARC
8
DEFAULT_255_1_234
10
12.2942491
20
0.299888
40
0.2824501
50
61.4255242
51
82.9364833
0
ARC
8
DEFAULT_255_1_234
10
12.2973024
20
0.3135381
40
0.2685315
50
83.2248685
51
90.0169286
0
ARC
8
DEFAULT_255_1_234
10
12.295005
20
0.3345258
40
0.2475536
50
89.4866256
51
105.9339782
0
ARC
8
DEFAULT_255_1_234
10
12.2813714
20
0.3852243
40
0.1950618
50
106.1714718
51
133.5284424
0
ARC
8
DEFAULT_255_1_234
10
12.2736427
20
0.3929552
40
0.184134
50
133.4415429
51
173.1661404
0
ARC
8
DEFAULT_255_1_234
10
12.3473229
20
0.379547
40
0.258926
50
172.160215
51
180.1505798
0
ARC
8
DEFAULT_255_1_234
10
12.4010135
20
0.3763897
40
0.3126255
50
179.5460705
51
192.5418777
0
ARC
8
DEFAULT_255_1_234
10
12.2979335
20
0.3520983
40
0.2067346
50
192.1739365
51
219.2061916
0
ARC
8
DEFAULT_255_1_234
10
12.2854906
20
0.3442055
40
0.1921118
50
219.7279328
51
225.7542026
0
ARC
8
DEFAULT_255_1_234
10
12.2951955
20
0.3563583
40
0.2075944
50
226.175737
51
256.3674722
0
ARC
8
DEFAULT_255_1_234
10
12.3221818
20
0.4570502
40
0.3118201
50
255.9092917
51
268.8683903
0
ARC
8
DEFAULT_255_1_234
10
12.3268821
20
0.5435363
40
0.3983935
50
268.438168
51
270.0083905
0
ARC
8
DEFAULT_255_1_234
10
12.3229769
20
0.4033965
40
0.4068601
50
253.2878735
51
270.5581814
0
ARC
8
DEFAULT_255_1_234
10
12.300916
20
0.3232227
40
0.3237344
50
223.454115
51
252.9470031
0
ARC
8
DEFAULT_255_1_234
10
12.3199
20
0.3410768
40
0.349795
50
190.7869394
51
223.4384016
0
ARC
8
DEFAULT_255_1_234
10
12.4747681
20
0.375854
40
0.5084616
50
179.6605301
51
191.3704185
0
ARC
8
DEFAULT_255_1_234
10
12.4686504
20
0.3824878
40
0.502348
50
168.2171172
51
180.4130393
0
ARC
8
DEFAULT_255_1_234
10
12.3062363
20
0.4179957
40
0.3361092
50
145.9268222
51
168.4888551
0
ARC
8
DEFAULT_255_1_234
10
12.2723676
20
0.4376397
40
0.2970617
50
137.9292255
51
145.4054003
0
ARC
8
DEFAULT_255_1_234
10
12.2620498
20
0.4477957
40
0.2825983
50
94.3347696
51
138.0560701
0
ARC
8
DEFAULT_255_1_234
10
12.2790399
20
0.3382351
40
0.393225
50
89.925209
51
95.5967654
0
ARC
8
DEFAULT_255_1_234
10
12.2734184
20
0.3811243
40
0.3503892
50
67.8914096
51
88.9967724
0
ARC
8
DEFAULT_255_1_234
10
12.1687294
20
0.1097655
40
0.6412172
50
56.9135351
51
68.3505194
0
ARC
8
DEFAULT_255_1_234
10
11.9132716
20
-0.2888041
40
1.1146189
50
49.6472867
51
57.095818
0
ARC
8
DEFAULT_255_1_234
10
11.5971
20
-0.6721038
40
1.6114559
50
47.2586784
51
49.9046139
0
LINE
8
DEFAULT_255_1_234
10
11.9823789
20
1.8799984
11
13.1518
21
1.8799984
0
LINE
8
DEFAULT_255_1_234
10
13.1518
20
1.8799984
11
13.1518
21
1.7249858
0
LINE
8
DEFAULT_255_1_234
10
13.1518
20
1.7249858
11
12.250639
21
1.1362594
0
LINE
8
DEFAULT_255_1_234
10
12.250639
20
1.1362594
11
13.1518
21
1.1362594
0
LINE
8
DEFAULT_255_1_234
10
13.1518
20
1.1362594
11
13.1518
21
0.9812469
0
LINE
8
DEFAULT_255_1_234
10
13.1518
20
0.9812469
11
11.9823789
21
0.9812469
0
LINE
8
DEFAULT_255_1_234
10
11.9823789
20
0.9812469
11
11.9823789
21
1.1362594
0
LINE
8
DEFAULT_255_1_234
10
11.9823789
20
1.1362594
11
12.8875558
21
1.7265922
0
LINE
8
DEFAULT_255_1_234
10
12.8875558
20
1.7265922
11
11.9823789
21
1.7265922
0
LINE
8
DEFAULT_255_1_234
10
11.9823789
20
1.7265922
11
11.9823789
21
1.8799984
0
LINE
8
DEFAULT_255_1_234
10
13.0305208
20
2.8815562
11
13.1518
21
2.8815562
0
LINE
8
DEFAULT_255_1_234
10
13.1518
20
2.8815562
11
13.1518
21
2.1153283
0
LINE
8
DEFAULT_255_1_234
10
13.1518
20
2.1153283
11
13.0449779
21
2.1153283
0
LINE
8
DEFAULT_255_1_234
10
13.0449779
20
2.1153283
11
12.5952005
21
2.5201279
0
LINE
8
DEFAULT_255_1_234
10
12.3269405
20
2.2414266
11
12.3269405
21
2.0928395
0
LINE
8
DEFAULT_255_1_234
10
12.6907782
20
2.6076739
11
13.0305208
21
2.2944361
0
LINE
8
DEFAULT_255_1_234
10
13.0305208
20
2.2944361
11
13.0305208
21
2.8815562
0
ARC
8
DEFAULT_255_1_234
10
11.4022473
20
1.1711113
40
1.8008286
50
48.5132453
51
50.7828378
0
ARC
8
DEFAULT_255_1_234
10
11.8325574
20
1.6998087
40
1.1191493
50
50.7372736
51
53.9737074
0
ARC
8
DEFAULT_255_1_234
10
12.1165639
20
2.0917943
40
0.6350923
50
53.8961724
51
58.6421089
0
ARC
8
DEFAULT_255_1_234
10
12.2427969
20
2.2964539
40
0.3946393
50
58.8299013
51
61.789948
0
ARC
8
DEFAULT_255_1_234
10
12.2942491
20
2.3961717
40
0.2824501
50
61.4255242
51
82.9364833
0
ARC
8
DEFAULT_255_1_234
10
12.2973024
20
2.4098218
40
0.2685315
50
83.2248685
51
90.0169286
0
ARC
8
DEFAULT_255_1_234
10
12.295005
20
2.4308095
40
0.2475536
50
89.4866256
51
105.9339782
0
ARC
8
DEFAULT_255_1_234
10
12.2813714
20
2.481508
40
0.1950618
50
106.1714718
51
133.5284424
0
ARC
8
DEFAULT_255_1_234
10
12.2736427
20
2.4892389
40
0.184134
50
133.4415429
51
173.1661404
0
ARC
8
DEFAULT_255_1_234
10
12.3473229
20
2.4758307
40
0.258926
50
172.160215
51
180.1505798
0
ARC
8
DEFAULT_255_1_234
10
12.4010135
20
2.4726734
40
0.3126255
50
179.5460705
51
192.5418777
0
ARC
8
DEFAULT_255_1_234
10
12.2979335
20
2.448382
40
0.2067346
50
192.1739365
51
219.2061916
0
ARC
8
DEFAULT_255_1_234
10
12.2854906
20
2.4404892
40
0.1921118
50
219.7279328
51
225.7542026
0
ARC
8
DEFAULT_255_1_234
10
12.2951955
20
2.452642
40
0.2075944
50
226.175737
51
256.3674722
0
ARC
8
DEFAULT_255_1_234
10
12.3221818
20
2.5533339
40
0.3118201
50
255.9092917
51
268.8683903
0
ARC
8
DEFAULT_255_1_234
10
12.3268821
20
2.63982
40
0.3983935
50
268.438168
51
270.0083905
0
ARC
8
DEFAULT_255_1_234
10
12.3229769
20
2.4996802
40
0.4068601
50
253.2878735
51
270.5581814
0
ARC
8
DEFAULT_255_1_234
10
12.300916
20
2.4195064
40
0.3237344
50
223.454115
51
252.9470031
0
ARC
8
DEFAULT_255_1_234
10
12.3199
20
2.4373605
40
0.349795
50
190.7869394
51
223.4384016
0
ARC
8
DEFAULT_255_1_234
10
12.4747681
20
2.4721376
40
0.5084616
50
179.6605301
51
191.3704185
0
ARC
8
DEFAULT_255_1_234
10
12.4686504
20
2.4787715
40
0.502348
50
168.2171172
51
180.4130393
0
ARC
8
DEFAULT_255_1_234
10
12.3062363
20
2.5142794
40
0.3361092
50
145.9268222
51
168.4888551
0
ARC
8
DEFAULT_255_1_234
10
12.2723676
20
2.5339234
40
0.2970617
50
137.9292255
51
145.4054003
0
ARC
8
DEFAULT_255_1_234
10
12.2620498
20
2.5440794
40
0.2825983
50
94.3347696
51
138.0560701
0
ARC
8
DEFAULT_255_1_234
10
12.2790399
20
2.4345188
40
0.393225
50
89.925209
51
95.5967654
0
ARC
8
DEFAULT_255_1_234
10
12.2734184
20
2.477408
40
0.3503892
50
67.8914096
51
88.9967724
0
ARC
8
DEFAULT_255_1_234
10
12.1687294
20
2.2060492
40
0.6412172
50
56.9135351
51
68.3505194
0
ARC
8
DEFAULT_255_1_234
10
11.9132716
20
1.8074796
40
1.1146189
50
49.6472867
51
57.095818
0
ARC
8
DEFAULT_255_1_234
10
11.5971
20
1.4241799
40
1.6114559
50
47.2586784
51
49.9046139
0
LINE
8
DEFAULT_255_1_234
10
18.3219208
20
-0.5712881
11
18.4432
21
-0.5712881
0
LINE
8
DEFAULT_255_1_234
10
18.4432
20
-0.5712881
11
18.4432
21
-1.337516
0
LINE
8
DEFAULT_255_1_234
10
18.4432
20
-1.337516
11
18.3363779
21
-1.337516
0
LINE
8
DEFAULT_255_1_234
10
18.3363779
20
-1.337516
11
17.8866005
21
-0.9327164
0
LINE
8
DEFAULT_255_1_234
10
17.6183405
20
-1.2114177
11
17.6183405
21
-1.3600048
0
LINE
8
DEFAULT_255_1_234
10
17.9821782
20
-0.8451704
11
18.3219208
21
-1.1584082
0
LINE
8
DEFAULT_255_1_234
10
18.3219208
20
-1.1584082
11
18.3219208
21
-0.5712881
0
ARC
8
DEFAULT_255_1_234
10
16.6936473
20
-2.281733
40
1.8008286
50
48.5132453
51
50.7828378
0
ARC
8
DEFAULT_255_1_234
10
17.1239574
20
-1.7530356
40
1.1191493
50
50.7372736
51
53.9737074
0
ARC
8
DEFAULT_255_1_234
10
17.4079639
20
-1.3610499
40
0.6350923
50
53.8961724
51
58.6421089
0
ARC
8
DEFAULT_255_1_234
10
17.5341969
20
-1.1563904
40
0.3946393
50
58.8299013
51
61.789948
0
ARC
8
DEFAULT_255_1_234
10
17.5856491
20
-1.0566726
40
0.2824501
50
61.4255242
51
82.9364833
0
ARC
8
DEFAULT_255_1_234
10
17.5887024
20
-1.0430225
40
0.2685315
50
83.2248685
51
90.0169286
0
ARC
8
DEFAULT_255_1_234
10
17.586405
20
-1.0220348
40
0.2475536
50
89.4866256
51
105.9339782
0
ARC
8
DEFAULT_255_1_234
10
17.5727714
20
-0.9713363
40
0.1950618
50
106.1714718
51
133.5284424
0
ARC
8
DEFAULT_255_1_234
10
17.5650427
20
-0.9636054
40
0.184134
50
133.4415429
51
173.1661404
0
ARC
8
DEFAULT_255_1_234
10
17.6387229
20
-0.9770136
40
0.258926
50
172.160215
51
180.1505798
0
ARC
8
DEFAULT_255_1_234
10
17.6924135
20
-0.9801709
40
0.3126255
50
179.5460705
51
192.5418777
0
ARC
8
DEFAULT_255_1_234
10
17.5893335
20
-1.0044623
40
0.2067346
50
192.1739365
51
219.2061916
0
ARC
8
DEFAULT_255_1_234
10
17.5768906
20
-1.0123551
40
0.1921118
50
219.7279328
51
225.7542026
0
ARC
8
DEFAULT_255_1_234
10
17.5865955
20
-1.0002023
40
0.2075944
50
226.175737
51
256.3674722
0
ARC
8
DEFAULT_255_1_234
10
17.6135818
20
-0.8995104
40
0.3118201
50
255.9092917
51
268.8683903
0
ARC
8
DEFAULT_255_1_234
10
17.6182821
20
-0.8130243
40
0.3983935
50
268.438168
51
270.0083905
0
ARC
8
DEFAULT_255_1_234
10
17.6143769
20
-0.9531641
40
0.4068601
50
253.2878735
51
270.5581814
0
ARC
8
DEFAULT_255_1_234
10
17.592316
20
-1.0333379
40
0.3237344
50
223.454115
51
252.9470031
0
ARC
8
DEFAULT_255_1_234
10
17.6113
20
-1.0154838
40
0.349795
50
190.7869394
51
223.4384016
0
ARC
8
DEFAULT_255_1_234
10
17.7661681
20
-0.9807066
40
0.5084616
50
179.6605301
51
191.3704185
0
ARC
8
DEFAULT_255_1_234
10
17.7600504
20
-0.9740727
40
0.502348
50
168.2171172
51
180.4130393
0
ARC
8
DEFAULT_255_1_234
10
17.5976363
20
-0.9385649
40
0.3361092
50
145.9268222
51
168.4888551
0
ARC
8
DEFAULT_255_1_234
10
17.5637676
20
-0.9189209
40
0.2970617
50
137.9292255
51
145.4054003
0
ARC
8
DEFAULT_255_1_234
10
17.5534498
20
-0.9087648
40
0.2825983
50
94.3347696
51
138.0560701
0
ARC
8
DEFAULT_255_1_234
10
17.5704399
20
-1.0183255
40
0.393225
50
89.925209
51
95.5967654
0
ARC
8
DEFAULT_255_1_234
10
17.5648184
20
-0.9754363
40
0.3503892
50
67.8914096
51
88.9967724
0
ARC
8
DEFAULT_255_1_234
10
17.4601294
20
-1.2467951
40
0.6412172
50
56.9135351
51
68.3505194
0
ARC
8
DEFAULT_255_1_234
10
17.2046716
20
-1.6453647
40
1.1146189
50
49.6472867
51
57.095818
0
ARC
8
DEFAULT_255_1_234
10
16.8885
20
-2.0286644
40
1.6114559
50
47.2586784
51
49.9046139
0
ARC
8
DEFAULT_255_1_234
10
18.3643435
20
-0.2883616
40
0.1070357
50
253.5417914
51
270.5078233
0
ARC
8
DEFAULT_255_1_234
10
18.3591579
20
-0.3075798
40
0.0871371
50
228.1647447
51
253.2316401
0
ARC
8
DEFAULT_255_1_234
10
18.3496466
20
-0.3188019
40
0.0724329
50
195.6856465
51
227.8494928
0
ARC
8
DEFAULT_255_1_234
10
18.3880871
20
-0.3069587
40
0.1126485
50
182.6088068
51
196.1990587
0
ARC
8
DEFAULT_255_1_234
10
18.4276226
20
-0.3039214
40
0.1522861
50
179.9660831
51
183.0733434
0
ARC
8
DEFAULT_255_1_234
10
18.405468
20
-0.3028519
40
0.130135
50
168.4379222
51
180.4311858
0
ARC
8
DEFAULT_255_1_234
10
18.3604412
20
-0.2931939
40
0.0840873
50
146.8960528
51
168.7359558
0
ARC
8
DEFAULT_255_1_234
10
18.3494123
20
-0.2868712
40
0.0713991
50
132.6499553
51
146.3125067
0
ARC
8
DEFAULT_255_1_234
10
18.3611854
20
-0.2996825
40
0.0887984
50
93.8142714
51
132.6365749
0
ARC
8
DEFAULT_255_1_234
10
18.3651847
20
-0.3283024
40
0.1176392
50
89.9476902
51
94.8305927
0
ARC
8
DEFAULT_255_1_234
10
18.3662459
20
-0.3056865
40
0.0950282
50
70.9376387
51
90.5750546
0
ARC
8
DEFAULT_255_1_234
10
18.3692808
20
-0.2944369
40
0.0834082
50
46.0805399
51
70.3842391
0
ARC
8
DEFAULT_255_1_234
10
18.3746191
20
-0.288629
40
0.0755219
50
15.8514865
51
45.9414755
0
ARC
8
DEFAULT_255_1_234
10
18.3366651
20
-0.3003719
40
0.115244
50
3.1292529
51
16.3135479
0
ARC
8
DEFAULT_255_1_234
10
18.2964951
20
-0.303702
40
0.1555398
50
359.9524064
51
3.5463789
0
ARC
8
DEFAULT_255_1_234
10
18.3183208
20
-0.3048068
40
0.1337177
50
349.0490813
51
0.4180302
0
ARC
8
DEFAULT_255_1_234
10
18.3660607
20
-0.3144405
40
0.0850178
50
329.7587791
51
349.311372
0
ARC
8
DEFAULT_255_1_234
10
18.3811518
20
-0.3225374
40
0.0679053
50
312.6244131
51
329.247817
0
ARC
8
DEFAULT_255_1_234
10
18.3688381
20
-0.3090999
40
0.0861314
50
272.9227855
51
312.598345
0
ARC
8
DEFAULT_255_1_234
10
18.3653627
20
-0.282238
40
0.113155
50
269.9642935
51
273.9868025
0
LINE
8
DEFAULT_255_1_234
10
18.3219208
20
0.7852725
11
18.4432
21
0.7852725
0
LINE
8
DEFAULT_255_1_234
10
18.4432
20
0.7852725
11
18.4432
21
0.0190446
0
LINE
8
DEFAULT_255_1_234
10
18.4432
20
0.0190446
11
18.3363779
21
0.0190446
0
LINE
8
DEFAULT_255_1_234
10
18.3363779
20
0.0190446
11
17.8866005
21
0.4238442
0
LINE
8
DEFAULT_255_1_234
10
17.6183405
20
0.1451429
11
17.6183405
21
-0.0034442
0
LINE
8
DEFAULT_255_1_234
10
17.9821782
20
0.5113902
11
18.3219208
21
0.1981524
0
LINE
8
DEFAULT_255_1_234
10
18.3219208
20
0.1981524
11
18.3219208
21
0.7852725
0
ARC
8
DEFAULT_255_1_234
10
16.6936473
20
-0.9251724
40
1.8008286
50
48.5132453
51
50.7828378
0
ARC
8
DEFAULT_255_1_234
10
17.1239574
20
-0.396475
40
1.1191493
50
50.7372736
51
53.9737074
0
ARC
8
DEFAULT_255_1_234
10
17.4079639
20
-0.0044894
40
0.6350923
50
53.8961724
51
58.6421089
0
ARC
8
DEFAULT_255_1_234
10
17.5341969
20
0.2001702
40
0.3946393
50
58.8299013
51
61.789948
0
ARC
8
DEFAULT_255_1_234
10
17.5856491
20
0.299888
40
0.2824501
50
61.4255242
51
82.9364833
0
ARC
8
DEFAULT_255_1_234
10
17.5887024
20
0.3135381
40
0.2685315
50
83.2248685
51
90.0169286
0
ARC
8
DEFAULT_255_1_234
10
17.586405
20
0.3345258
40
0.2475536
50
89.4866256
51
105.9339782
0
ARC
8
DEFAULT_255_1_234
10
17.5727714
20
0.3852243
40
0.1950618
50
106.1714718
51
133.5284424
0
ARC
8
DEFAULT_255_1_234
10
17.5650427
20
0.3929552
40
0.184134
50
133.4415429
51
173.1661404
0
ARC
8
DEFAULT_255_1_234
10
17.6387229
20
0.379547
40
0.258926
50
172.160215
51
180.1505798
0
ARC
8
DEFAULT_255_1_234
10
17.6924135
20
0.3763897
40
0.3126255
50
179.5460705
51
192.5418777
0
ARC
8
DEFAULT_255_1_234
10
17.5893335
20
0.3520983
40
0.2067346
50
192.1739365
51
219.2061916
0
ARC
8
DEFAULT_255_1_234
10
17.5768906
20
0.3442055
40
0.1921118
50
219.7279328
51
225.7542026
0
ARC
8
DEFAULT_255_1_234
10
17.5865955
20
0.3563583
40
0.2075944
50
226.175737
51
256.3674722
0
ARC
8
DEFAULT_255_1_234
10
17.6135818
20
0.4570502
40
0.3118201
50
255.9092917
51
268.8683903
0
ARC
8
DEFAULT_255_1_234
10
17.6182821
20
0.5435363
40
0.3983935
50
268.438168
51
270.0083905
0
ARC
8
DEFAULT_255_1_234
10
17.6143769
20
0.4033965
40
0.4068601
50
253.2878735
51
270.5581814
0
ARC
8
DEFAULT_255_1_234
10
17.592316
20
0.3232227
40
0.3237344
50
223.454115
51
252.9470031
0
ARC
8
DEFAULT_255_1_234
10
17.6113
20
0.3410768
40
0.349795
50
190.7869394
51
223.4384016
0
ARC
8
DEFAULT_255_1_234
10
17.7661681
20
0.375854
40
0.5084616
50
179.6605301
51
191.3704185
0
ARC
8
DEFAULT_255_1_234
10
17.7600504
20
0.3824878
40
0.502348
50
168.2171172
51
180.4130393
0
ARC
8
DEFAULT_255_1_234
10
17.5976363
20
0.4179957
40
0.3361092
50
145.9268222
51
168.4888551
0
ARC
8
DEFAULT_255_1_234
10
17.5637676
20
0.4376397
40
0.2970617
50
137.9292255
51
145.4054003
0
ARC
8
DEFAULT_255_1_234
10
17.5534498
20
0.4477957
40
0.2825983
50
94.3347696
51
138.0560701
0
ARC
8
DEFAULT_255_1_234
10
17.5704399
20
0.3382351
40
0.393225
50
89.925209
51
95.5967654
0
ARC
8
DEFAULT_255_1_234
10
17.5648184
20
0.3811243
40
0.3503892
50
67.8914096
51
88.9967724
0
ARC
8
DEFAULT_255_1_234
10
17.4601294
20
0.1097655
40
0.6412172
50
56.9135351
51
68.3505194
0
ARC
8
DEFAULT_255_1_234
10
17.2046716
20
-0.2888041
40
1.1146189
50
49.6472867
51
57.095818
0
ARC
8
DEFAULT_255_1_234
10
16.8885
20
-0.6721038
40
1.6114559
50
47.2586784
51
49.9046139
0
LINE
8
DEFAULT_255_1_234
10
17.2737789
20
1.8799984
11
18.4432
21
1.8799984
0
LINE
8
DEFAULT_255_1_234
10
18.4432
20
1.8799984
11
18.4432
21
1.7249858
0
LINE
8
DEFAULT_255_1_234
10
18.4432
20
1.7249858
11
17.542039
21
1.1362594
0
LINE
8
DEFAULT_255_1_234
10
17.542039
20
1.1362594
11
18.4432
21
1.1362594
0
LINE
8
DEFAULT_255_1_234
10
18.4432
20
1.1362594
11
18.4432
21
0.9812469
0
LINE
8
DEFAULT_255_1_234
10
18.4432
20
0.9812469
11
17.2737789
21
0.9812469
0
LINE
8
DEFAULT_255_1_234
10
17.2737789
20
0.9812469
11
17.2737789
21
1.1362594
0
LINE
8
DEFAULT_255_1_234
10
17.2737789
20
1.1362594
11
18.1789558
21
1.7265922
0
LINE
8
DEFAULT_255_1_234
10
18.1789558
20
1.7265922
11
17.2737789
21
1.7265922
0
LINE
8
DEFAULT_255_1_234
10
17.2737789
20
1.7265922
11
17.2737789
21
1.8799984
0
LINE
8
DEFAULT_255_1_234
10
17.9074831
20
2.3313821
11
17.7862038
21
2.3313821
0
LINE
8
DEFAULT_255_1_234
10
17.7862038
20
2.3313821
11
17.7862038
21
2.4430232
0
LINE
8
DEFAULT_255_1_234
10
17.5805913
20
2.252671
11
17.5805913
21
2.1040839
0
LINE
8
DEFAULT_255_1_234
10
18.1347813
20
2.0936426
11
18.1347812
21
2.243033
0
LINE
8
DEFAULT_255_1_234
10
17.9074831
20
2.4430232
11
17.9074831
21
2.3313821
0
ARC
8
DEFAULT_255_1_234
10
17.4469287
20
2.4401099
40
0.3392876
50
0.4919872
51
11.8951556
0
ARC
8
DEFAULT_255_1_234
10
17.5571298
20
2.464236
40
0.2264817
50
11.6691735
51
31.2943132
0
ARC
8
DEFAULT_255_1_234
10
17.5882696
20
2.4812571
40
0.1910381
50
31.7833094
51
41.7545298
0
ARC
8
DEFAULT_255_1_234
10
17.5984252
20
2.4904146
40
0.1773635
50
41.7323931
51
84.2802411
0
ARC
8
DEFAULT_255_1_234
10
17.5859278
20
2.4177772
40
0.2509385
50
83.0937916
51
90.1181479
0
ARC
8
DEFAULT_255_1_234
10
17.5811614
20
2.3716557
40
0.2970898
50
89.1805295
51
105.0453146
0
ARC
8
DEFAULT_255_1_234
10
17.5419008
20
2.5062394
40
0.1569564
50
103.9577229
51
167.6713066
0
ARC
8
DEFAULT_255_1_234
10
17.6804051
20
2.4675923
40
0.3006298
50
166.1116566
51
180.7026153
0
ARC
8
DEFAULT_255_1_234
10
17.6530455
20
2.4616761
40
0.2732568
50
179.5324876
51
193.531937
0
ARC
8
DEFAULT_255_1_234
10
17.5731116
20
2.4416205
40
0.1908508
50
193.2931773
51
223.5619022
0
ARC
8
DEFAULT_255_1_234
10
17.5671625
20
2.4371693
40
0.1834746
50
223.8349307
51
263.5344437
0
ARC
8
DEFAULT_255_1_234
10
17.5799787
20
2.5094737
40
0.2568033
50
262.5096846
51
270.1366907
0
ARC
8
DEFAULT_255_1_234
10
17.5765378
20
2.414363
40
0.3103056
50
245.3484492
51
270.7484736
0
ARC
8
DEFAULT_255_1_234
10
17.5794154
20
2.409472
40
0.3070957
50
221.5744599
51
244.4798489
0
ARC
8
DEFAULT_255_1_234
10
17.611069
20
2.4407867
40
0.3515643
50
186.9875458
51
221.9690667
0
ARC
8
DEFAULT_255_1_234
10
17.7356364
20
2.4627347
40
0.4779224
50
179.8596053
51
187.7825159
0
ARC
8
DEFAULT_255_1_234
10
17.7618384
20
2.467541
40
0.5041361
50
168.3655447
51
180.4131539
0
ARC
8
DEFAULT_255_1_234
10
17.5959113
20
2.5033328
40
0.3344039
50
146.6229102
51
168.638727
0
ARC
8
DEFAULT_255_1_234
10
17.5583195
20
2.5248271
40
0.2912001
50
137.0253525
51
146.0854072
0
ARC
8
DEFAULT_255_1_234
10
17.5543777
20
2.5268051
40
0.2869704
50
100.9208013
51
136.7778124
0
ARC
8
DEFAULT_255_1_234
10
17.5859143
20
2.3904118
40
0.426899
50
89.6364486
51
101.6087304
0
ARC
8
DEFAULT_255_1_234
10
17.5874248
20
2.5738962
40
0.243409
50
62.3549906
51
89.7179418
0
ARC
8
DEFAULT_255_1_234
10
17.5565858
20
2.5088563
40
0.3153459
50
55.2333722
51
62.8745602
0
ARC
8
DEFAULT_255_1_234
10
17.5672172
20
2.5241187
40
0.2967456
50
22.9802137
51
55.2392345
0
ARC
8
DEFAULT_255_1_234
10
17.5138137
20
2.4966561
40
0.3566604
50
22.5402179
51
23.6924929
0
ARC
8
DEFAULT_255_1_234
10
18.1592909
20
2.5359157
40
0.3307468
50
147.6435486
51
162.8625112
0
ARC
8
DEFAULT_255_1_234
10
18.1018451
20
2.5713657
40
0.2632492
50
126.7248896
51
147.4697979
0
ARC
8
DEFAULT_255_1_234
10
18.100578
20
2.5702289
40
0.2634081
50
98.0545065
51
126.356114
0
ARC
8
DEFAULT_255_1_234
10
18.1160826
20
2.4839475
40
0.3510261
50
89.8320645
51
98.5869982
0
ARC
8
DEFAULT_255_1_234
10
18.1208899
20
2.4464251
40
0.3885653
50
73.9829931
51
90.5571613
0
ARC
8
DEFAULT_255_1_234
10
18.1451562
20
2.5350448
40
0.2966924
50
41.6359546
51
73.7651759
0
ARC
8
DEFAULT_255_1_234
10
18.1024898
20
2.4972017
40
0.3537231
50
9.7829875
51
41.6255694
0
ARC
8
DEFAULT_255_1_234
10
17.958772
20
2.4670793
40
0.5004971
50
359.7286406
51
10.3856417
0
ARC
8
DEFAULT_255_1_234
10
17.9629004
20
2.4608866
40
0.4963778
50
346.6828919
51
0.4412052
0
ARC
8
DEFAULT_255_1_234
10
18.1013606
20
2.4270162
40
0.3538406
50
319.4223008
51
346.8556159
0
ARC
8
DEFAULT_255_1_234
10
18.1480264
20
2.3855555
40
0.2914296
50
271.818294
51
319.6455059
0
ARC
8
DEFAULT_255_1_234
10
18.1349504
20
2.4895511
40
0.3959084
50
269.9755256
51
273.2323064
0
ARC
8
DEFAULT_255_1_234
10
18.1369963
20
2.4723257
40
0.2293034
50
269.4465117
51
286.2869258
0
ARC
8
DEFAULT_255_1_234
10
18.1503349
20
2.4235665
40
0.1787621
50
286.5661473
51
317.705904
0
ARC
8
DEFAULT_255_1_234
10
18.1319845
20
2.439976
40
0.2033784
50
317.7652068
51
347.8762805
0
ARC
8
DEFAULT_255_1_234
10
18.0376844
20
2.462473
40
0.3003081
50
347.4584385
51
0.426602
0
ARC
8
DEFAULT_255_1_234
10
18.0087004
20
2.4670296
40
0.329292
50
359.5962073
51
10.8789248
0
ARC
8
DEFAULT_255_1_234
10
18.1233315
20
2.4899825
40
0.2123908
50
10.6346389
51
29.8595945
0
ARC
8
DEFAULT_255_1_234
10
18.1595788
20
2.5090731
40
0.171457
50
30.3576302
51
44.5517981
0
ARC
8
DEFAULT_255_1_234
10
18.1535081
20
2.5007791
40
0.1816095
50
45.0728369
51
75.0431014
0
ARC
8
DEFAULT_255_1_234
10
18.1266159
20
2.4084606
40
0.2777492
50
74.5986631
51
87.9269593
0
ARC
8
DEFAULT_255_1_234
10
18.1204724
20
2.3188932
40
0.3674917
50
87.4748886
51
90.0231117
0
ARC
8
DEFAULT_255_1_234
10
18.1180321
20
2.4212041
40
0.2651907
50
89.5047933
51
103.4239635
0
ARC
8
DEFAULT_255_1_234
10
18.0958522
20
2.5078685
40
0.1757509
50
102.9498199
51
138.7551375
0
ARC
8
DEFAULT_255_1_234
10
18.12076
20
2.4896419
40
0.2065134
50
139.5088623
51
162.1836453
0
ARC
8
DEFAULT_255_1_234
10
18.2269709
20
2.4538572
40
0.3185836
50
161.9010081
51
174.3554254
0
ARC
8
DEFAULT_255_1_234
10
18.3630674
20
2.4377204
40
0.4556151
50
174.0193428
51
179.333121
0
ENDSEC
0
EOF