0
SECTION
2
HEADER
9
$MEASUREMENT
70
1
0
ENDSEC
0
SECTION
2
TABLES
0
TABLE
2
LTYPE
0
LTYPE
72
65
70
64
2
CONTINUOUS
3
______
73
0
40
0
0
ENDTAB
0
TABLE
2
LAYER
0
LAYER
2
DEFAULT_255_2_778
70
0
62
255
6
CONTINUOUS
0
LAYER
2
DEFAULT_255_1_234
70
0
62
255
6
CONTINUOUS
0
ENDTAB
0
ENDSEC
0
SECTION
2
ENTITIES
0
ARC
8
DEFAULT_255_2_778
10
14.1810926
20
0.533124
40
4.2673276
50
165.3141061
51
180.0522404
0
ARC
8
DEFAULT_255_2_778
10
14.1260215
20
0.5444019
40
4.2111977
50
141.7831836
51
165.2725787
0
ARC
8
DEFAULT_255_2_778
10
14.1381969
20
0.538448
40
4.2244479
50
108.6484238
51
141.8218969
0
ARC
8
DEFAULT_255_2_778
10
14.1385834
20
0.5237129
40
4.2385353
50
92.8837648
51
108.5896832
0
ARC
8
DEFAULT_255_2_778
10
14.1468435
20
0.4197372
40
4.3427959
50
89.9970545
51
92.9235905
0
ARC
8
DEFAULT_255_2_778
10
14.150961
20
0.4949174
40
4.2676176
50
75.3146077
51
90.0522823
0
ARC
8
DEFAULT_255_2_778
10
14.1622899
20
0.5501696
40
4.2112996
50
51.7838192
51
75.2731355
0
ARC
8
DEFAULT_255_2_778
10
14.1564212
20
0.5381073
40
4.2244082
50
18.6485458
51
51.8224898
0
ARC
8
DEFAULT_255_2_778
10
14.1416665
20
0.5377176
40
4.2385152
50
2.8837652
51
18.5897608
0
ARC
8
DEFAULT_255_2_778
10
14.0376708
20
0.5294565
40
4.3427959
50
359.9970545
51
2.9235905
0
ARC
8
DEFAULT_255_2_778
10
14.1128626
20
0.5253383
40
4.2676059
50
345.3145763
51
0.0522926
0
ARC
8
DEFAULT_255_2_778
10
14.1681506
20
0.5140014
40
4.2112511
50
321.7834503
51
345.2730853
0
ARC
8
DEFAULT_255_2_778
10
14.1560274
20
0.5199288
40
4.2244438
50
288.6478515
51
321.8220063
0
ARC
8
DEFAULT_255_2_778
10
14.1555598
20
0.534888
40
4.2387694
50
272.8835994
51
288.5891852
0
ARC
8
DEFAULT_255_2_778
10
14.1472902
20
0.6389789
40
4.3431456
50
269.9970525
51
272.9234743
0
ARC
8
DEFAULT_255_2_778
10
14.1431752
20
0.5631474
40
4.267316
50
255.3140747
51
270.0522506
0
ARC
8
DEFAULT_255_2_778
10
14.1318894
20
0.5080405
40
4.2111492
50
231.7828146
51
255.2725285
0
ARC
8
DEFAULT_255_2_778
10
14.137902
20
0.5202768
40
4.2244835
50
198.6477295
51
231.8214134
0
ARC
8
DEFAULT_255_2_778
10
14.1528417
20
0.5207412
40
4.2387896
50
182.883599
51
198.5891076
0
ARC
8
DEFAULT_255_2_778
10
14.2569125
20
0.5290098
40
4.3431456
50
179.9970525
51
182.9234743
0
LINE
8
DEFAULT_255_2_778
10
9.9137668
20
0.5292332
11
9.9137668
21
0.5292332
0
ARC
8
DEFAULT_255_2_778
10
20.7576251
20
6.8228969
40
0.472923
50
247.6897699
51
270.4957308
0
ARC
8
DEFAULT_255_2_778
10
20.7914881
20
6.8577711
40
0.5183575
50
201.7484164
51
245.6899233
0
ARC
8
DEFAULT_255_2_778
10
21.1055233
20
7.0048687
40
0.8647814
50
179.5645181
51
203.0913323
0
ARC
8
DEFAULT_255_2_778
10
21.089602
20
7.0201365
40
0.8488796
50
154.2374075
51
180.586881
0
ARC
8
DEFAULT_255_2_778
10
20.7668043
20
7.189905
40
0.4845423
50
101.3830732
51
155.7265753
0
ARC
8
DEFAULT_255_2_778
10
20.7605428
20
7.1682473
40
0.5046455
50
89.8667054
51
100.2007452
0
ARC
8
DEFAULT_255_2_778
10
20.7576251
20
8.1457969
40
0.472923
50
247.6897699
51
270.4957308
0
ARC
8
DEFAULT_255_2_778
10
20.7914881
20
8.1806711
40
0.5183575
50
201.7484164
51
245.6899233
0
ARC
8
DEFAULT_255_2_778
10
21.1055233
20
8.3277687
40
0.8647814
50
179.5645181
51
203.0913323
0
ARC
8
DEFAULT_255_2_778
10
21.089602
20
8.3430365
40
0.8488796
50
154.2374075
51
180.586881
0
ARC
8
DEFAULT_255_2_778
10
20.7668043
20
8.512805
40
0.4845423
50
101.3830732
51
155.7265753
0
ARC
8
DEFAULT_255_2_778
10
20.7605428
20
8.4911473
40
0.5046455
50
89.8667054
51
100.2007452
0
ARC
8
DEFAULT_255_2_778
10
20.7576251
20
9.4686969
40
0.472923
50
247.6897699
51
270.4957308
0
ARC
8
DEFAULT_255_2_778
10
20.7914881
20
9.5035711
40
0.5183575
50
201.7484164
51
245.6899233
0
ARC
8
DEFAULT_255_2_778
10
21.1055233
20
9.6506687
40
0.8647814
50
179.5645181
51
203.0913323
0
ARC
8
DEFAULT_255_2_778
10
21.089602
20
9.6659365
40
0.8488796
50
154.2374075
51
180.586881
0
ARC
8
DEFAULT_255_2_778
10
20.7668043
20
9.835705
40
0.4845423
50
101.3830732
51
155.7265753
0
ARC
8
DEFAULT_255_2_778
10
20.7605428
20
9.8140473
40
0.5046455
50
89.8667054
51
100.2007452
0
LINE
8
DEFAULT_255_2_778
10
9.9137169
20
0.5290915
11
7.5325169
21
0.5290915
0
LINE
8
DEFAULT_255_2_778
10
7.5325169
20
0.5290915
11
7.5325169
21
10.3186915
0
LINE
8
DEFAULT_255_2_778
10
18.3804169
20
0.5290915
11
20.7617169
21
0.5290915
0
LINE
8
DEFAULT_255_2_778
10
20.7617169
20
0.5290915
11
20.7617169
21
6.3499915
0
LINE
8
DEFAULT_255_2_778
10
13.2110365
20
2.8095937
11
13.5314365
21
2.8095937
0
LINE
8
DEFAULT_255_2_778
10
13.5314365
20
2.8095937
11
14.1463365
21
1.2747937
0
LINE
8
DEFAULT_255_2_778
10
14.1463365
20
1.2747937
11
14.7612365
21
2.8095937
0
LINE
8
DEFAULT_255_2_778
10
14.7612365
20
2.8095937
11
15.0829365
21
2.8095937
0
LINE
8
DEFAULT_255_2_778
10
15.0829365
20
2.8095937
11
15.0829365
21
0.9286937
0
LINE
8
DEFAULT_255_2_778
10
15.0829365
20
0.9286937
11
14.8350365
21
0.9286937
0
LINE
8
DEFAULT_255_2_778
10
14.8350365
20
0.9286937
11
14.8350365
21
1.6612937
0
LINE
8
DEFAULT_255_2_778
10
14.8350365
20
1.6612937
11
14.8583365
21
2.4518937
0
LINE
8
DEFAULT_255_2_778
10
14.8583365
20
2.4518937
11
14.2408365
21
0.9286937
0
LINE
8
DEFAULT_255_2_778
10
14.2408365
20
0.9286937
11
14.0508365
21
0.9286937
0
LINE
8
DEFAULT_255_2_778
10
14.0508365
20
0.9286937
11
13.4346365
21
2.4478937
0
LINE
8
DEFAULT_255_2_778
10
13.4346365
20
2.4478937
11
13.4592365
21
1.6609937
0
LINE
8
DEFAULT_255_2_778
10
13.4592365
20
1.6609937
11
13.4592365
21
0.9283937
0
LINE
8
DEFAULT_255_2_778
10
13.4592365
20
0.9283937
11
13.2110365
21
0.9283937
0
LINE
8
DEFAULT_255_2_778
10
13.2110365
20
0.9283937
11
13.2110365
21
2.8092937
0
LINE
8
DEFAULT_255_2_778
10
13.2110365
20
2.8092937
11
13.2110365
21
2.8095937
0
ARC
8
DEFAULT_255_2_778
10
13.31565
20
1.0493088
40
3.4620895
50
324.2899208
51
326.3487617
0
ARC
8
DEFAULT_255_2_778
10
13.8960515
20
0.6317696
40
2.7471038
50
321.930005
51
324.2953994
0
ARC
8
DEFAULT_255_2_778
10
14.3673855
20
0.2619659
40
2.1480126
50
319.0355576
51
321.9432162
0
ARC
8
DEFAULT_255_2_778
10
14.7416694
20
-0.0634562
40
1.6520411
50
315.5727638
51
319.0478566
0
ARC
8
DEFAULT_255_2_778
10
15.0311365
20
-0.3480618
40
1.2460964
50
311.1146671
51
315.6012923
0
ARC
8
DEFAULT_255_2_778
10
15.2417691
20
-0.5899043
40
0.9253883
50
305.652106
51
311.1356158
0
ARC
8
DEFAULT_255_2_778
10
15.3824462
20
-0.7868517
40
0.6833593
50
298.5619505
51
305.6926072
0
ARC
8
DEFAULT_255_2_778
10
15.4685861
20
-0.9464182
40
0.5020282
50
288.6077004
51
298.6342445
0
ARC
8
DEFAULT_255_2_778
10
15.5071393
20
-1.0622002
40
0.3799969
50
273.8313192
51
288.6690046
0
ARC
8
DEFAULT_255_2_778
10
15.5111148
20
-1.0994234
40
0.3425944
50
270.0063474
51
273.5839147
0
ARC
8
DEFAULT_255_2_778
10
15.5187487
20
-1.0553274
40
0.386765
50
234.5394168
51
268.8746474
0
ARC
8
DEFAULT_255_2_778
10
15.7130051
20
-0.7564826
40
0.7430294
50
224.4327316
51
235.7075722
0
ARC
8
DEFAULT_255_2_778
10
16.1787811
20
-0.2956311
40
1.3982595
50
217.7551234
51
224.5558712
0
ARC
8
DEFAULT_255_2_778
10
17.756168
20
0.9205938
40
3.3900789
50
213.7074325
51
217.6837123
0
ARC
8
DEFAULT_255_2_778
10
27.850234
20
7.7589978
40
15.5823834
50
213.6222358
51
214.0274051
0
ARC
8
DEFAULT_255_2_778
10
10.1092421
20
-3.987082
40
5.6947898
50
33.1956628
51
36.0730962
0
ARC
8
DEFAULT_255_2_778
10
13.3183921
20
-1.6560968
40
1.728427
50
36.2568935
51
42.2649738
0
ARC
8
DEFAULT_255_2_778
10
13.9441598
20
-1.0859959
40
0.8819057
50
42.1979034
51
51.9368248
0
ARC
8
DEFAULT_255_2_778
10
14.1878219
20
-0.7700481
40
0.4829342
50
51.5870176
51
70.3310192
0
ARC
8
DEFAULT_255_2_778
10
14.2375437
20
-0.6418911
40
0.3455389
50
70.942043
51
89.892544
0
ARC
8
DEFAULT_255_2_778
10
14.2396361
20
-0.6613655
40
0.3650155
50
90.2267116
51
106.3942369
0
ARC
8
DEFAULT_255_2_778
10
14.2692884
20
-0.7641601
40
0.4720004
50
106.3254655
51
116.6324028
0
ARC
8
DEFAULT_255_2_778
10
14.3437427
20
-0.9136304
40
0.6389874
50
116.5922786
51
124.4194913
0
ARC
8
DEFAULT_255_2_778
10
14.4767961
20
-1.1090433
40
0.875396
50
124.3737976
51
130.3283478
0
ARC
8
DEFAULT_255_2_778
10
14.6766899
20
-1.3456986
40
1.1851748
50
130.291275
51
134.8785051
0
ARC
8
DEFAULT_255_2_778
10
14.9491278
20
-1.620312
40
1.572001
50
134.8523367
51
138.4632366
0
ARC
8
DEFAULT_255_2_778
10
15.2980021
20
-1.9302494
40
2.0386637
50
138.4447185
51
141.3323159
0
ARC
8
DEFAULT_255_2_778
10
15.7469298
20
-2.2897338
40
2.6137856
50
141.3281915
51
143.8858335
0
ARC
8
DEFAULT_255_2_778
10
16.2815184
20
-2.6811006
40
3.2763203
50
143.8669645
51
145.7599403
0
ARC
8
DEFAULT_255_2_778
10
16.6720621
20
-2.9491579
40
3.7500039
50
145.7315869
51
146.3123247
0
LINE
8
DEFAULT_255_2_778
10
12.7465917
20
-0.0502969
11
12.7465917
21
-1.7512969
0
LINE
8
DEFAULT_255_2_778
10
12.7465917
20
-1.7512969
11
12.5304917
21
-1.7512969
0
LINE
8
DEFAULT_255_2_778
10
12.5304917
20
-1.7512969
11
12.5304917
21
-0.3174969
0
LINE
8
DEFAULT_255_2_778
10
12.5304917
20
-0.3174969
11
12.0967917
21
-0.4767969
0
LINE
8
DEFAULT_255_2_778
10
12.0967917
20
-0.4767969
11
12.0967917
21
-0.2814969
0
LINE
8
DEFAULT_255_2_778
10
12.0967917
20
-0.2814969
11
12.7129917
21
-0.0502969
0
LINE
8
DEFAULT_255_2_778
10
12.7129917
20
-0.0502969
11
12.7465917
21
-0.0502969
0
LINE
8
DEFAULT_255_2_778
10
12.7465917
20
-0.0502969
11
12.7465917
21
-0.0502969
0
LINE
8
DEFAULT_255_1_234
10
5.0858137
20
9.2052433
11
5.0858137
21
8.0302
0
LINE
8
DEFAULT_255_1_234
10
5.0858137
20
8.0302
11
4.9364234
21
8.0302
0
LINE
8
DEFAULT_255_1_234
10
4.9364234
20
8.0302
11
4.9364234
21
9.0205133
0
LINE
8
DEFAULT_255_1_234
10
4.9364234
20
9.0205133
11
4.6368396
21
8.9104785
0
LINE
8
DEFAULT_255_1_234
10
4.6368396
20
8.9104785
11
4.6368396
21
9.0454117
0
LINE
8
DEFAULT_255_1_234
10
4.6368396
20
9.0454117
11
5.0625217
21
9.2052433
0
LINE
8
DEFAULT_255_1_234
10
5.0625217
20
9.2052433
11
5.0858137
21
9.2052433
0
LINE
8
DEFAULT_255_1_234
10
6.2873618
20
8.1514792
11
6.2873618
21
8.0302
0
LINE
8
DEFAULT_255_1_234
10
6.2873618
20
8.0302
11
5.5211339
21
8.0302
0
LINE
8
DEFAULT_255_1_234
10
5.5211339
20
8.0302
11
5.5211339
21
8.1370221
0
LINE
8
DEFAULT_255_1_234
10
5.5211339
20
8.1370221
11
5.9259335
21
8.5867995
0
LINE
8
DEFAULT_255_1_234
10
5.6472322
20
8.8550595
11
5.4986451
21
8.8550595
0
LINE
8
DEFAULT_255_1_234
10
6.0134795
20
8.4912218
11
5.7002417
21
8.1514792
0
LINE
8
DEFAULT_255_1_234
10
5.7002417
20
8.1514792
11
6.2873618
21
8.1514792
0
ARC
8
DEFAULT_255_1_234
10
4.5769169
20
9.7797527
40
1.8008286
50
318.5132453
51
320.7828378
0
ARC
8
DEFAULT_255_1_234
10
5.1056143
20
9.3494426
40
1.1191493
50
320.7372736
51
323.9737074
0
ARC
8
DEFAULT_255_1_234
10
5.4976
20
9.0654361
40
0.6350923
50
323.8961724
51
328.6421089
0
ARC
8
DEFAULT_255_1_234
10
5.7022595
20
8.9392031
40
0.3946393
50
328.8299013
51
331.789948
0
ARC
8
DEFAULT_255_1_234
10
5.8019774
20
8.8877509
40
0.2824501
50
331.4255242
51
352.9364833
0
ARC
8
DEFAULT_255_1_234
10
5.8156274
20
8.8846976
40
0.2685315
50
353.2248685
51
0.0169286
0
ARC
8
DEFAULT_255_1_234
10
5.8366151
20
8.886995
40
0.2475536
50
359.4866256
51
15.9339782
0
ARC
8
DEFAULT_255_1_234
10
5.8873136
20
8.9006286
40
0.1950618
50
16.1714718
51
43.5284424
0
ARC
8
DEFAULT_255_1_234
10
5.8950445
20
8.9083573
40
0.184134
50
43.4415429
51
83.1661404
0
ARC
8
DEFAULT_255_1_234
10
5.8816363
20
8.8346771
40
0.258926
50
82.160215
51
90.1505798
0
ARC
8
DEFAULT_255_1_234
10
5.878479
20
8.7809865
40
0.3126255
50
89.5460705
51
102.5418777
0
ARC
8
DEFAULT_255_1_234
10
5.8541876
20
8.8840665
40
0.2067346
50
102.1739365
51
129.2061916
0
ARC
8
DEFAULT_255_1_234
10
5.8462948
20
8.8965094
40
0.1921118
50
129.7279328
51
135.7542026
0
ARC
8
DEFAULT_255_1_234
10
5.8584476
20
8.8868045
40
0.2075944
50
136.175737
51
166.3674722
0
ARC
8
DEFAULT_255_1_234
10
5.9591395
20
8.8598182
40
0.3118201
50
165.9092917
51
178.8683903
0
ARC
8
DEFAULT_255_1_234
10
6.0456256
20
8.8551179
40
0.3983935
50
178.438168
51
180.0083905
0
ARC
8
DEFAULT_255_1_234
10
5.9054859
20
8.8590231
40
0.4068601
50
163.2878735
51
180.5581814
0
ARC
8
DEFAULT_255_1_234
10
5.825312
20
8.881084
40
0.3237344
50
133.454115
51
162.9470031
0
ARC
8
DEFAULT_255_1_234
10
5.8431661
20
8.8621
40
0.349795
50
100.7869394
51
133.4384016
0
ARC
8
DEFAULT_255_1_234
10
5.8779433
20
8.7072319
40
0.5084616
50
89.6605301
51
101.3704185
0
ARC
8
DEFAULT_255_1_234
10
5.8845772
20
8.7133496
40
0.502348
50
78.2171172
51
90.4130393
0
ARC
8
DEFAULT_255_1_234
10
5.920085
20
8.8757637
40
0.3361092
50
55.9268222
51
78.4888551
0
ARC
8
DEFAULT_255_1_234
10
5.939729
20
8.9096324
40
0.2970617
50
47.9292255
51
55.4054003
0
ARC
8
DEFAULT_255_1_234
10
5.9498851
20
8.9199502
40
0.2825983
50
4.3347696
51
48.0560701
0
ARC
8
DEFAULT_255_1_234
10
5.8403244
20
8.9029601
40
0.393225
50
359.925209
51
5.5967654
0
ARC
8
DEFAULT_255_1_234
10
5.8832136
20
8.9085816
40
0.3503892
50
337.8914096
51
358.9967724
0
ARC
8
DEFAULT_255_1_234
10
5.6118548
20
9.0132706
40
0.6412172
50
326.9135351
51
338.3505194
0
ARC
8
DEFAULT_255_1_234
10
5.2132852
20
9.2687284
40
1.1146189
50
319.6472867
51
327.095818
0
ARC
8
DEFAULT_255_1_234
10
4.8299855
20
9.5849
40
1.6114559
50
317.2586784
51
319.9046139
0
ENDSEC
0
EOF