0
SECTION
2
HEADER
9
$MEASUREMENT
70
1
0
ENDSEC
0
SECTION
2
TABLES
0
TABLE
2
LTYPE
0
LTYPE
72
65
70
64
2
CONTINUOUS
3
______
73
0
40
0
0
ENDTAB
0
TABLE
2
LAYER
0
LAYER
2
DEFAULT_255_1_234
70
0
62
255
6
CONTINUOUS
0
LAYER
2
DEFAULT_255_2_778
70
0
62
255
6
CONTINUOUS
0
ENDTAB
0
ENDSEC
0
SECTION
2
ENTITIES
0
LINE
8
DEFAULT_255_1_234
10
7.3965229
20
16.6393629
11
7.5194085
21
16.6401661
0
LINE
8
DEFAULT_255_1_234
10
6.7395268
20
16.3678901
11
6.6102158
21
16.3662838
0
LINE
8
DEFAULT_255_1_234
10
7.2358882
20
16.4714996
11
7.2591802
21
16.4698932
0
ARC
8
DEFAULT_255_1_234
10
7.1646683
20
16.6369082
40
0.3547552
50
342.4850674
51
0.5261752
0
ARC
8
DEFAULT_255_1_234
10
7.2181105
20
16.6222422
40
0.2993842
50
319.0739327
51
342.0836404
0
ARC
8
DEFAULT_255_1_234
10
7.24731
20
16.5918503
40
0.2574416
50
298.4091926
51
319.9273919
0
ARC
8
DEFAULT_255_1_234
10
7.2619699
20
16.5719272
40
0.2329679
50
269.313886
51
297.5690892
0
ARC
8
DEFAULT_255_1_234
10
7.2575701
20
16.6216485
40
0.2826772
50
247.621552
51
270.3263502
0
ARC
8
DEFAULT_255_1_234
10
7.2593488
20
16.6192506
40
0.2811486
50
238.5512048
51
247.1003244
0
ARC
8
DEFAULT_255_1_234
10
7.3562465
20
16.7796234
40
0.4685198
50
232.8710691
51
238.6745001
0
ARC
8
DEFAULT_255_1_234
10
7.5168268
20
16.9930519
40
0.7356102
50
228.705173
51
232.9334102
0
ARC
8
DEFAULT_255_1_234
10
7.8609365
20
17.3892619
40
1.2603853
50
228.7965706
51
228.8385774
0
ARC
8
DEFAULT_255_1_234
10
6.0582879
20
15.3329178
40
1.4742254
50
48.7311305
51
50.2502712
0
ARC
8
DEFAULT_255_1_234
10
6.449867
20
15.8045517
40
0.8612227
50
50.2159501
51
52.4078294
0
ARC
8
DEFAULT_255_1_234
10
6.699303
20
16.1293641
40
0.4516852
50
52.3442536
51
55.6489358
0
ARC
8
DEFAULT_255_1_234
10
6.8413841
20
16.338534
40
0.1988257
50
55.4399902
51
61.3981892
0
ARC
8
DEFAULT_255_1_234
10
6.8870534
20
16.4204416
40
0.1050545
50
61.881069
51
64.008811
0
ARC
8
DEFAULT_255_1_234
10
6.8703979
20
16.3861816
40
0.1431483
50
64.0260022
51
90.3030061
0
ARC
8
DEFAULT_255_1_234
10
6.8681747
20
16.3837222
40
0.1456132
50
89.4230754
51
105.7064346
0
ARC
8
DEFAULT_255_1_234
10
6.8579516
20
16.4209484
40
0.1070098
50
105.8328288
51
142.3200149
0
ARC
8
DEFAULT_255_1_234
10
6.8889265
20
16.3973525
40
0.1459478
50
142.4215759
51
164.196601
0
ARC
8
DEFAULT_255_1_234
10
6.9608089
20
16.3759432
40
0.220946
50
163.9311229
51
175.9946835
0
ARC
8
DEFAULT_255_1_234
10
7.0442235
20
16.3682872
40
0.304697
50
175.6541526
51
180.0746611
0
ARC
8
DEFAULT_255_1_234
10
6.9768209
20
16.3693217
40
0.3666178
50
165.1728297
51
180.4747827
0
ARC
8
DEFAULT_255_1_234
10
6.8928446
20
16.3910939
40
0.2798664
50
138.2317011
51
165.0822031
0
ARC
8
DEFAULT_255_1_234
10
6.8638608
20
16.4230576
40
0.2370007
50
91.9410761
51
139.3277015
0
ARC
8
DEFAULT_255_1_234
10
6.8695705
20
16.3681447
40
0.2921007
50
89.986193
51
92.6955755
0
ARC
8
DEFAULT_255_1_234
10
6.8699499
20
16.3812977
40
0.2789479
50
65.2115242
51
90.0634737
0
ARC
8
DEFAULT_255_1_234
10
6.845649
20
16.3306908
40
0.3350817
50
56.7890155
51
65.0672146
0
ARC
8
DEFAULT_255_1_234
10
6.7343004
20
16.1587263
40
0.5399465
50
51.1962736
51
56.8981192
0
ARC
8
DEFAULT_255_1_234
10
6.5666866
20
15.9484273
40
0.8088689
50
47.4370066
51
51.2787113
0
ARC
8
DEFAULT_255_1_234
10
7.4567556
20
16.9163954
40
0.5061164
50
227.3427993
51
232.8368305
0
ARC
8
DEFAULT_255_1_234
10
7.3360529
20
16.7561905
40
0.3055317
50
232.7266512
51
240.7131413
0
ARC
8
DEFAULT_255_1_234
10
7.2719651
20
16.6406296
40
0.1733921
50
240.5035975
51
253.0086217
0
ARC
8
DEFAULT_255_1_234
10
7.2539073
20
16.5848866
40
0.1148098
50
253.4976366
51
260.9702484
0
ARC
8
DEFAULT_255_1_234
10
7.2608834
20
16.5993131
40
0.1294311
50
269.2460356
51
293.33961
0
ARC
8
DEFAULT_255_1_234
10
7.2606385
20
16.594259
40
0.1249075
50
294.3612908
51
321.4853472
0
ARC
8
DEFAULT_255_1_234
10
7.2321595
20
16.6181742
40
0.1620861
50
321.1395944
51
347.0211866
0
ARC
8
DEFAULT_255_1_234
10
7.1587532
20
16.6364761
40
0.2377315
50
346.6963107
51
359.2920958
0
ARC
8
DEFAULT_255_1_234
10
7.0980417
20
16.6393514
40
0.2984814
50
358.8841791
51
0.002206
0
LINE
8
DEFAULT_255_1_234
10
7.3965229
20
0.1849629
11
7.5194085
21
0.1857661
0
LINE
8
DEFAULT_255_1_234
10
6.7395268
20
-0.0865099
11
6.6102158
21
-0.0881162
0
LINE
8
DEFAULT_255_1_234
10
7.2358882
20
0.0170996
11
7.2591802
21
0.0154932
0
ARC
8
DEFAULT_255_1_234
10
7.1646683
20
0.1825082
40
0.3547552
50
342.4850674
51
0.5261752
0
ARC
8
DEFAULT_255_1_234
10
7.2181105
20
0.1678422
40
0.2993842
50
319.0739327
51
342.0836404
0
ARC
8
DEFAULT_255_1_234
10
7.24731
20
0.1374503
40
0.2574416
50
298.4091926
51
319.9273919
0
ARC
8
DEFAULT_255_1_234
10
7.2619699
20
0.1175272
40
0.2329679
50
269.313886
51
297.5690892
0
ARC
8
DEFAULT_255_1_234
10
7.2575701
20
0.1672485
40
0.2826772
50
247.621552
51
270.3263502
0
ARC
8
DEFAULT_255_1_234
10
7.2593488
20
0.1648506
40
0.2811486
50
238.5512048
51
247.1003244
0
ARC
8
DEFAULT_255_1_234
10
7.3562465
20
0.3252234
40
0.4685198
50
232.8710691
51
238.6745001
0
ARC
8
DEFAULT_255_1_234
10
7.5168268
20
0.5386519
40
0.7356102
50
228.705173
51
232.9334102
0
ARC
8
DEFAULT_255_1_234
10
7.8609365
20
0.9348619
40
1.2603853
50
228.7965706
51
228.8385774
0
ARC
8
DEFAULT_255_1_234
10
6.0582879
20
-1.1214822
40
1.4742254
50
48.7311305
51
50.2502712
0
ARC
8
DEFAULT_255_1_234
10
6.449867
20
-0.6498483
40
0.8612227
50
50.2159501
51
52.4078294
0
ARC
8
DEFAULT_255_1_234
10
6.699303
20
-0.3250359
40
0.4516852
50
52.3442536
51
55.6489358
0
ARC
8
DEFAULT_255_1_234
10
6.8413841
20
-0.115866
40
0.1988257
50
55.4399902
51
61.3981892
0
ARC
8
DEFAULT_255_1_234
10
6.8870534
20
-0.0339584
40
0.1050545
50
61.881069
51
64.008811
0
ARC
8
DEFAULT_255_1_234
10
6.8703979
20
-0.0682184
40
0.1431483
50
64.0260022
51
90.3030061
0
ARC
8
DEFAULT_255_1_234
10
6.8681747
20
-0.0706778
40
0.1456132
50
89.4230754
51
105.7064346
0
ARC
8
DEFAULT_255_1_234
10
6.8579516
20
-0.0334516
40
0.1070098
50
105.8328288
51
142.3200149
0
ARC
8
DEFAULT_255_1_234
10
6.8889265
20
-0.0570475
40
0.1459478
50
142.4215759
51
164.196601
0
ARC
8
DEFAULT_255_1_234
10
6.9608089
20
-0.0784568
40
0.220946
50
163.9311229
51
175.9946835
0
ARC
8
DEFAULT_255_1_234
10
7.0442235
20
-0.0861128
40
0.304697
50
175.6541526
51
180.0746611
0
ARC
8
DEFAULT_255_1_234
10
6.9768209
20
-0.0850783
40
0.3666178
50
165.1728297
51
180.4747827
0
ARC
8
DEFAULT_255_1_234
10
6.8928446
20
-0.0633061
40
0.2798664
50
138.2317011
51
165.0822031
0
ARC
8
DEFAULT_255_1_234
10
6.8638608
20
-0.0313424
40
0.2370007
50
91.9410761
51
139.3277015
0
ARC
8
DEFAULT_255_1_234
10
6.8695705
20
-0.0862553
40
0.2921007
50
89.986193
51
92.6955755
0
ARC
8
DEFAULT_255_1_234
10
6.8699499
20
-0.0731023
40
0.2789479
50
65.2115242
51
90.0634737
0
ARC
8
DEFAULT_255_1_234
10
6.845649
20
-0.1237092
40
0.3350817
50
56.7890155
51
65.0672146
0
ARC
8
DEFAULT_255_1_234
10
6.7343004
20
-0.2956737
40
0.5399465
50
51.1962736
51
56.8981192
0
ARC
8
DEFAULT_255_1_234
10
6.5666866
20
-0.5059727
40
0.8088689
50
47.4370066
51
51.2787113
0
ARC
8
DEFAULT_255_1_234
10
7.4567556
20
0.4619954
40
0.5061164
50
227.3427993
51
232.8368305
0
ARC
8
DEFAULT_255_1_234
10
7.3360529
20
0.3017905
40
0.3055317
50
232.7266512
51
240.7131413
0
ARC
8
DEFAULT_255_1_234
10
7.2719651
20
0.1862296
40
0.1733921
50
240.5035975
51
253.0086217
0
ARC
8
DEFAULT_255_1_234
10
7.2539073
20
0.1304866
40
0.1148098
50
253.4976366
51
260.9702484
0
ARC
8
DEFAULT_255_1_234
10
7.2608834
20
0.1449131
40
0.1294311
50
269.2460356
51
293.33961
0
ARC
8
DEFAULT_255_1_234
10
7.2606385
20
0.139859
40
0.1249075
50
294.3612908
51
321.4853472
0
ARC
8
DEFAULT_255_1_234
10
7.2321595
20
0.1637742
40
0.1620861
50
321.1395944
51
347.0211866
0
ARC
8
DEFAULT_255_1_234
10
7.1587532
20
0.1820761
40
0.2377315
50
346.6963107
51
359.2920958
0
ARC
8
DEFAULT_255_1_234
10
7.0980417
20
0.1849514
40
0.2984814
50
358.8841791
51
0.002206
0
LINE
8
DEFAULT_255_1_234
10
18.0899265
20
10.3701276
11
18.0899265
21
10.0287788
0
LINE
8
DEFAULT_255_1_234
10
18.0899265
20
10.0287788
11
18.416015
21
10.0287788
0
LINE
8
DEFAULT_255_1_234
10
18.416015
20
10.0287788
11
18.416015
21
9.8882233
0
LINE
8
DEFAULT_255_1_234
10
18.416015
20
9.8882233
11
18.0899265
21
9.8882233
0
LINE
8
DEFAULT_255_1_234
10
18.0899265
20
9.8882233
11
18.0899265
21
9.5187634
0
LINE
8
DEFAULT_255_1_234
10
18.0899265
20
9.5187634
11
17.9405361
21
9.5187634
0
LINE
8
DEFAULT_255_1_234
10
17.9405361
20
9.5187634
11
17.9405361
21
9.8882233
0
LINE
8
DEFAULT_255_1_234
10
17.9405361
20
9.8882233
11
17.6144476
21
9.8882233
0
LINE
8
DEFAULT_255_1_234
10
17.6144476
20
9.8882233
11
17.6144476
21
10.0287788
0
LINE
8
DEFAULT_255_1_234
10
17.6144476
20
10.0287788
11
17.9405361
21
10.0287788
0
LINE
8
DEFAULT_255_1_234
10
17.9405361
20
10.0287788
11
17.9405361
21
10.3701276
0
LINE
8
DEFAULT_255_1_234
10
17.9405361
20
10.3701276
11
18.0899265
21
10.3701276
0
LINE
8
DEFAULT_255_1_234
10
0.8561663
20
9.9589026
11
0.8561663
21
9.8376234
0
LINE
8
DEFAULT_255_1_234
10
0.8561663
20
9.8376234
11
0.4642174
21
9.8376234
0
LINE
8
DEFAULT_255_1_234
10
0.4642174
20
9.8376234
11
0.4642174
21
9.9589026
0
LINE
8
DEFAULT_255_1_234
10
0.4642174
20
9.9589026
11
0.8561663
21
9.9589026
0
LINE
8
DEFAULT_255_2_778
10
9.8160169
20
15.0798831
11
3.2014169
21
8.4652831
0
LINE
8
DEFAULT_255_2_778
10
3.2014169
20
8.4652831
11
9.8160169
21
1.8506831
0
LINE
8
DEFAULT_255_2_778
10
9.8160169
20
1.8506831
11
16.4306169
21
8.4652831
0
LINE
8
DEFAULT_255_2_778
10
16.4306169
20
8.4652831
11
9.8160169
21
15.0798831
0
LINE
8
DEFAULT_255_2_778
10
8.7138136
20
9.5677864
11
8.7138136
21
7.3629864
0
LINE
8
DEFAULT_255_2_778
10
8.7138136
20
7.3629864
11
10.9186136
21
8.4652864
0
LINE
8
DEFAULT_255_2_778
10
10.9186136
20
8.4652864
11
8.7138136
21
9.5677864
0
LINE
8
DEFAULT_255_2_778
10
7.6112949
20
8.4653
11
12.0210949
21
8.4653
0
LINE
8
DEFAULT_255_2_778
10
10.9186
20
9.5677864
11
10.9186
21
7.3629864
0
ENDSEC
0
EOF