0
SECTION
2
HEADER
9
$MEASUREMENT
70
1
0
ENDSEC
0
SECTION
2
TABLES
0
TABLE
2
LTYPE
0
LTYPE
72
65
70
64
2
CONTINUOUS
3
______
73
0
40
0
0
ENDTAB
0
TABLE
2
LAYER
0
LAYER
2
DEFAULT_255_2_778
70
0
62
255
6
CONTINUOUS
0
LAYER
2
DEFAULT_255_1_234
70
0
62
255
6
CONTINUOUS
0
ENDTAB
0
ENDSEC
0
SECTION
2
ENTITIES
0
ARC
8
DEFAULT_255_2_778
10
16.1309224
20
7.771355
40
5.3450904
50
167.0932987
51
180.0427536
0
ARC
8
DEFAULT_255_2_778
10
16.0461011
20
7.7883489
40
5.2586169
50
148.3180854
51
167.0673517
0
ARC
8
DEFAULT_255_2_778
10
16.0689765
20
7.7753409
40
5.2849153
50
110.0832017
51
148.328327
0
ARC
8
DEFAULT_255_2_778
10
16.0634263
20
7.7754304
40
5.2829279
50
95.3310996
51
110.0270003
0
ARC
8
DEFAULT_255_2_778
10
16.0766635
20
7.6547221
40
5.4043445
50
89.9907771
51
95.3519304
0
ARC
8
DEFAULT_255_2_778
10
16.0815193
20
7.7142767
40
5.3447913
50
77.0929369
51
90.0427279
0
ARC
8
DEFAULT_255_2_778
10
16.0984745
20
7.7989391
40
5.2584813
50
58.3175703
51
77.0669583
0
ARC
8
DEFAULT_255_2_778
10
16.0853752
20
7.7759235
40
5.2849469
50
20.0830758
51
58.3277709
0
ARC
8
DEFAULT_255_2_778
10
16.0854634
20
7.7814698
40
5.2829621
50
5.3311072
51
20.02691
0
ARC
8
DEFAULT_255_2_778
10
15.964789
20
7.7682365
40
5.4043445
50
359.9907771
51
5.3519304
0
ARC
8
DEFAULT_255_2_778
10
16.0243283
20
7.7633815
40
5.3448067
50
347.0929653
51
0.0427185
0
ARC
8
DEFAULT_255_2_778
10
16.1089604
20
7.746433
40
5.2585278
50
328.3177859
51
347.0669902
0
ARC
8
DEFAULT_255_2_778
10
16.0859922
20
7.7594919
40
5.2849318
50
290.0836664
51
328.3280884
0
ARC
8
DEFAULT_255_2_778
10
16.0916234
20
7.7592043
40
5.2827306
50
275.3313078
51
290.0273754
0
ARC
8
DEFAULT_255_2_778
10
16.0784029
20
7.8797693
40
5.4040028
50
269.990782
51
275.3521003
0
ARC
8
DEFAULT_255_2_778
10
16.0735459
20
7.8208708
40
5.3451058
50
257.0933271
51
270.0427441
0
ARC
8
DEFAULT_255_2_778
10
16.0565586
20
7.7360799
40
5.2586634
50
238.318301
51
257.0673836
0
ARC
8
DEFAULT_255_2_778
10
16.0695263
20
7.7589079
40
5.2849002
50
200.0837923
51
238.3286446
0
ARC
8
DEFAULT_255_2_778
10
16.0692374
20
7.7532727
40
5.2826964
50
185.3313002
51
200.0274658
0
ARC
8
DEFAULT_255_2_778
10
16.1898363
20
7.7664971
40
5.4040028
50
179.990782
51
185.3521003
0
LINE
8
DEFAULT_255_2_778
10
10.7858335
20
7.7673665
11
10.7858335
21
7.7673665
0
LINE
8
DEFAULT_255_2_778
10
21.3703042
20
-2.7781084
11
21.3703042
21
1.7576916
0
LINE
8
DEFAULT_255_2_778
10
21.3703042
20
1.7576916
11
19.6505042
21
3.8364916
0
LINE
8
DEFAULT_255_2_778
10
10.7858313
20
-2.7780813
11
10.7858313
21
1.7576187
0
LINE
8
DEFAULT_255_2_778
10
10.7858313
20
1.7576187
11
12.5717313
21
3.7703187
0
LINE
8
DEFAULT_255_2_778
10
16.0775
20
-2.7780397
11
16.0775
21
2.4474603
0
LINE
8
DEFAULT_255_2_778
10
10.7859042
20
18.3885374
11
10.7859042
21
13.8527374
0
LINE
8
DEFAULT_255_2_778
10
10.7859042
20
13.8527374
11
12.5057042
21
11.6416374
0
LINE
8
DEFAULT_255_2_778
10
16.0775
20
18.3885333
11
16.0775
21
13.0968333
0
LINE
8
DEFAULT_255_2_778
10
21.3703042
20
18.3885916
11
21.3703042
21
13.8527916
0
LINE
8
DEFAULT_255_2_778
10
21.3703042
20
13.8527916
11
19.6505042
21
11.7739916
0
ARC
8
DEFAULT_255_2_778
10
16.1114926
20
7.752524
40
4.2673276
50
165.3141061
51
180.0522404
0
ARC
8
DEFAULT_255_2_778
10
16.0564215
20
7.7638019
40
4.2111977
50
141.7831836
51
165.2725787
0
ARC
8
DEFAULT_255_2_778
10
16.0685969
20
7.757848
40
4.2244479
50
108.6484238
51
141.8218969
0
ARC
8
DEFAULT_255_2_778
10
16.0689834
20
7.7431129
40
4.2385353
50
92.8837648
51
108.5896832
0
ARC
8
DEFAULT_255_2_778
10
16.0772435
20
7.6391372
40
4.3427959
50
89.9970545
51
92.9235905
0
ARC
8
DEFAULT_255_2_778
10
16.081361
20
7.7143174
40
4.2676176
50
75.3146077
51
90.0522823
0
ARC
8
DEFAULT_255_2_778
10
16.0926899
20
7.7695696
40
4.2112996
50
51.7838192
51
75.2731355
0
ARC
8
DEFAULT_255_2_778
10
16.0868212
20
7.7575073
40
4.2244082
50
18.6485458
51
51.8224898
0
ARC
8
DEFAULT_255_2_778
10
16.0720665
20
7.7571176
40
4.2385152
50
2.8837652
51
18.5897608
0
ARC
8
DEFAULT_255_2_778
10
15.9680708
20
7.7488565
40
4.3427959
50
359.9970545
51
2.9235905
0
ARC
8
DEFAULT_255_2_778
10
16.0432626
20
7.7447383
40
4.2676059
50
345.3145763
51
0.0522926
0
ARC
8
DEFAULT_255_2_778
10
16.0985506
20
7.7334014
40
4.2112511
50
321.7834503
51
345.2730853
0
ARC
8
DEFAULT_255_2_778
10
16.0864274
20
7.7393288
40
4.2244438
50
288.6478515
51
321.8220063
0
ARC
8
DEFAULT_255_2_778
10
16.0859598
20
7.754288
40
4.2387694
50
272.8835994
51
288.5891852
0
ARC
8
DEFAULT_255_2_778
10
16.0776902
20
7.8583789
40
4.3431456
50
269.9970525
51
272.9234743
0
ARC
8
DEFAULT_255_2_778
10
16.0735752
20
7.7825474
40
4.267316
50
255.3140747
51
270.0522506
0
ARC
8
DEFAULT_255_2_778
10
16.0622894
20
7.7274405
40
4.2111492
50
231.7828146
51
255.2725285
0
ARC
8
DEFAULT_255_2_778
10
16.068302
20
7.7396768
40
4.2244835
50
198.6477295
51
231.8214134
0
ARC
8
DEFAULT_255_2_778
10
16.0832417
20
7.7401412
40
4.2387896
50
182.883599
51
198.5891076
0
ARC
8
DEFAULT_255_2_778
10
16.1873125
20
7.7484098
40
4.3431456
50
179.9970525
51
182.9234743
0
LINE
8
DEFAULT_255_2_778
10
11.8441668
20
7.7486332
11
11.8441668
21
7.7486332
0
LINE
8
DEFAULT_255_2_778
10
15.1414365
20
10.4333021
11
15.4618365
21
10.4333021
0
LINE
8
DEFAULT_255_2_778
10
15.4618365
20
10.4333021
11
16.0767365
21
8.6794021
0
LINE
8
DEFAULT_255_2_778
10
16.0767365
20
8.6794021
11
16.6916365
21
10.4333021
0
LINE
8
DEFAULT_255_2_778
10
16.6916365
20
10.4333021
11
17.0133365
21
10.4333021
0
LINE
8
DEFAULT_255_2_778
10
17.0133365
20
10.4333021
11
17.0133365
21
8.2836021
0
LINE
8
DEFAULT_255_2_778
10
17.0133365
20
8.2836021
11
16.7654365
21
8.2836021
0
LINE
8
DEFAULT_255_2_778
10
16.7654365
20
8.2836021
11
16.7654365
21
9.1207021
0
LINE
8
DEFAULT_255_2_778
10
16.7654365
20
9.1207021
11
16.7887365
21
10.0243021
0
LINE
8
DEFAULT_255_2_778
10
16.7887365
20
10.0243021
11
16.1712365
21
8.2836021
0
LINE
8
DEFAULT_255_2_778
10
16.1712365
20
8.2836021
11
15.9812365
21
8.2836021
0
LINE
8
DEFAULT_255_2_778
10
15.9812365
20
8.2836021
11
15.3650365
21
10.0201021
0
LINE
8
DEFAULT_255_2_778
10
15.3650365
20
10.0201021
11
15.3896365
21
9.1210021
0
LINE
8
DEFAULT_255_2_778
10
15.3896365
20
9.1210021
11
15.3896365
21
8.2839021
0
LINE
8
DEFAULT_255_2_778
10
15.3896365
20
8.2839021
11
15.1417365
21
8.2839021
0
LINE
8
DEFAULT_255_2_778
10
15.1417365
20
8.2839021
11
15.1417365
21
10.4336021
0
LINE
8
DEFAULT_255_2_778
10
15.1417365
20
10.4336021
11
15.1414365
21
10.4333021
0
ARC
8
DEFAULT_255_2_778
10
14.6852906
20
8.2295555
40
4.0609789
50
328.0142143
51
329.7745158
0
ARC
8
DEFAULT_255_2_778
10
15.391016
20
7.7881814
40
3.2285974
50
325.8744579
51
328.023716
0
ARC
8
DEFAULT_255_2_778
10
15.9602779
20
7.4023031
40
2.5408756
50
323.5104799
51
325.876117
0
ARC
8
DEFAULT_255_2_778
10
16.4106143
20
7.0686005
40
1.9803757
50
320.6081396
51
323.5244046
0
ARC
8
DEFAULT_255_2_778
10
16.7688663
20
6.773964
40
1.5165277
50
317.1231208
51
320.6212857
0
ARC
8
DEFAULT_255_2_778
10
17.0472896
20
6.5145868
40
1.1360076
50
312.5851542
51
317.1548899
0
ARC
8
DEFAULT_255_2_778
10
17.2562491
20
6.2862826
40
0.8265139
50
306.5678887
51
312.6294493
0
ARC
8
DEFAULT_255_2_778
10
17.3959779
20
6.0970418
40
0.591278
50
298.5993827
51
306.6184222
0
ARC
8
DEFAULT_255_2_778
10
17.475775
20
5.9494214
40
0.4234722
50
287.3046433
51
298.680881
0
ARC
8
DEFAULT_255_2_778
10
17.5063742
20
5.8504286
40
0.3198584
50
270.2472222
51
287.3461153
0
ARC
8
DEFAULT_255_2_778
10
17.5141479
20
5.8685552
40
0.3380425
50
234.906082
51
268.9162715
0
ARC
8
DEFAULT_255_2_778
10
17.6725534
20
6.1151239
40
0.630975
50
224.3360697
51
236.0092303
0
ARC
8
DEFAULT_255_2_778
10
18.0201425
20
6.4590009
40
1.1199171
50
217.3190041
51
224.4916455
0
ARC
8
DEFAULT_255_2_778
10
18.8019749
20
7.0567214
40
2.1040566
50
212.6596498
51
217.3561218
0
ARC
8
DEFAULT_255_2_778
10
22.547976
20
9.4295562
40
6.5383193
50
209.8347469
51
212.4506323
0
ARC
8
DEFAULT_255_2_778
10
92.6447361
20
50.383549
40
87.7217753
50
210.2548374
51
210.2612363
0
ARC
8
DEFAULT_255_2_778
10
10.9559352
20
2.7954225
40
6.8177679
50
29.8149218
51
32.3847241
0
ARC
8
DEFAULT_255_2_778
10
14.9416915
20
5.3141202
40
2.102909
50
32.5975466
51
37.4331297
0
ARC
8
DEFAULT_255_2_778
10
15.7428717
20
5.9287957
40
1.0931006
50
37.3751719
51
45.0521126
0
ARC
8
DEFAULT_255_2_778
10
16.08826
20
6.2772611
40
0.6024727
50
44.8876248
51
57.4467136
0
ARC
8
DEFAULT_255_2_778
10
16.2295241
20
6.5073278
40
0.3325731
50
56.6326824
51
89.0922177
0
ARC
8
DEFAULT_255_2_778
10
16.2362885
20
6.5188558
40
0.3210069
50
90.266904
51
107.8533482
0
ARC
8
DEFAULT_255_2_778
10
16.2681859
20
6.417818
40
0.4269588
50
107.7708226
51
118.7974005
0
ARC
8
DEFAULT_255_2_778
10
16.3486259
20
6.2701289
40
0.5951324
50
118.7346323
51
126.7908245
0
ARC
8
DEFAULT_255_2_778
10
16.4902676
20
6.079363
40
0.8327318
50
126.7345191
51
132.7360073
0
ARC
8
DEFAULT_255_2_778
10
16.7016363
20
5.8493989
40
1.1450774
50
132.6954406
51
137.2812122
0
ARC
8
DEFAULT_255_2_778
10
16.9912144
20
5.5810517
40
1.5398753
50
137.2550686
51
140.8782999
0
ARC
8
DEFAULT_255_2_778
10
17.3548856
20
5.2841012
40
2.0093811
50
140.8523265
51
143.5982703
0
ARC
8
DEFAULT_255_2_778
10
17.8071639
20
4.9504068
40
2.5714378
50
143.5942355
51
146.0269822
0
ARC
8
DEFAULT_255_2_778
10
18.3739517
20
4.5678147
40
3.2552688
50
146.0170981
51
148.0253887
0
ARC
8
DEFAULT_255_2_778
10
19.0583379
20
4.140203
40
4.0622607
50
148.0208268
51
149.7732318
0
ARC
8
DEFAULT_255_2_778
10
14.4753178
20
6.6311355
40
0.3410043
50
268.556074
51
306.9629013
0
ARC
8
DEFAULT_255_2_778
10
14.5031901
20
6.5798155
40
0.2833689
50
308.6996251
51
315.7376244
0
ARC
8
DEFAULT_255_2_778
10
14.467707
20
6.604178
40
0.325866
50
317.0244329
51
1.9870496
0
ARC
8
DEFAULT_255_2_778
10
14.276285
20
6.6225227
40
0.5171401
50
359.2193459
51
0.0018663
0
ARC
8
DEFAULT_255_2_778
10
14.2980114
20
6.6350134
40
0.4955706
50
358.5576704
51
19.1205884
0
ARC
8
DEFAULT_255_2_778
10
14.529746
20
6.7109336
40
0.2517871
50
20.0706055
51
93.064121
0
ARC
8
DEFAULT_255_2_778
10
14.4969904
20
6.470826
40
0.4919134
50
87.7518313
51
90.0192602
0
ARC
8
DEFAULT_255_2_778
10
14.4841465
20
6.6757654
40
0.2872541
50
87.4703242
51
136.9816332
0
ARC
8
DEFAULT_255_2_778
10
14.5308892
20
6.6490069
40
0.3399083
50
139.0596656
51
181.5562741
0
ARC
8
DEFAULT_255_2_778
10
14.7244694
20
6.6304795
40
0.5334442
50
179.0015033
51
180.0042908
0
ARC
8
DEFAULT_255_2_778
10
14.5034533
20
6.646718
40
0.5277793
50
136.1213358
51
181.7674731
0
ARC
8
DEFAULT_255_2_778
10
14.4813997
20
6.6671746
40
0.4977041
50
88.2239461
51
136.0590743
0
ARC
8
DEFAULT_255_2_778
10
14.5104344
20
6.6041892
40
0.5606155
50
64.6701229
51
91.3910415
0
ARC
8
DEFAULT_255_2_778
10
14.5582454
20
6.7259177
40
0.4302265
50
43.1108232
51
63.4894825
0
ARC
8
DEFAULT_255_2_778
10
14.4965408
20
6.6799686
40
0.5067485
50
6.7033624
51
42.1355617
0
ARC
8
DEFAULT_255_2_778
10
14.1758328
20
6.6204185
40
0.8324983
50
359.7812102
51
8.1974923
0
ARC
8
DEFAULT_255_2_778
10
14.5417483
20
6.6209777
40
0.4665917
50
327.8576602
51
359.5409596
0
ARC
8
DEFAULT_255_2_778
10
14.5529631
20
6.6000877
40
0.4461358
50
295.0874285
51
329.3632033
0
ARC
8
DEFAULT_255_2_778
10
14.6060761
20
5.798416
40
0.4202544
50
33.2012501
51
71.1113627
0
ARC
8
DEFAULT_255_2_778
10
14.5290466
20
5.7621161
40
0.5047243
50
359.5839092
51
31.8609365
0
ARC
8
DEFAULT_255_2_778
10
14.302668
20
5.7428047
40
0.731257
50
359.9948994
51
1.2260025
0
ARC
8
DEFAULT_255_2_778
10
14.3725402
20
5.7294704
40
0.6615179
50
337.6260752
51
1.149357
0
ARC
8
DEFAULT_255_2_778
10
14.5336343
20
5.6715393
40
0.4905609
50
315.8003834
51
336.7208174
0
ARC
8
DEFAULT_255_2_778
10
14.5188962
20
5.690923
40
0.5146534
50
268.1124492
51
315.3971785
0
ARC
8
DEFAULT_255_2_778
10
14.4981875
20
5.9273026
40
0.7507631
50
270.0028645
51
270.2867277
0
ARC
8
DEFAULT_255_2_778
10
14.483107
20
5.7325711
40
0.556237
50
238.3583739
51
271.5574415
0
ARC
8
DEFAULT_255_2_778
10
14.4610065
20
5.6784035
40
0.4986203
50
225.3073407
51
237.2550227
0
ARC
8
DEFAULT_255_2_778
10
14.4757421
20
5.6858972
40
0.5143374
50
180.2357006
51
224.7274985
0
ARC
8
DEFAULT_255_2_778
10
14.715323
20
5.7134621
40
0.754498
50
179.9865209
51
182.254503
0
ARC
8
DEFAULT_255_2_778
10
14.5236546
20
5.6986577
40
0.3469532
50
177.525133
51
217.9230214
0
ARC
8
DEFAULT_255_2_778
10
14.4804869
20
5.6755489
40
0.2988135
50
219.5150641
51
223.6640392
0
ARC
8
DEFAULT_255_2_778
10
14.4837103
20
5.6840504
40
0.3070401
50
224.3963915
51
272.6535085
0
ARC
8
DEFAULT_255_2_778
10
14.5117937
20
5.705357
40
0.3283105
50
267.5789598
51
303.6225046
0
ARC
8
DEFAULT_255_2_778
10
14.5445732
20
5.6400683
40
0.2559469
50
305.6053782
51
318.5199413
0
ARC
8
DEFAULT_255_2_778
10
14.4708379
20
5.6907998
40
0.3449609
50
320.3193555
51
355.6531922
0
ARC
8
DEFAULT_255_2_778
10
14.1904949
20
5.735627
40
0.6283328
50
353.5143492
51
0.1652842
0
ARC
8
DEFAULT_255_2_778
10
14.4129442
20
5.7505539
40
0.4060926
50
358.1493677
51
26.3244322
0
ARC
8
DEFAULT_255_2_778
10
14.533569
20
5.8014586
40
0.2755153
50
27.9603888
51
45.0771807
0
ARC
8
DEFAULT_255_2_778
10
14.4992676
20
5.7518733
40
0.3350183
50
46.9121419
51
85.9711409
0
ARC
8
DEFAULT_255_2_778
10
14.4575627
20
5.5036331
40
0.5860734
50
83.6084676
51
89.133573
0
LINE
8
DEFAULT_255_2_778
10
14.305025
20
6.0896396
11
14.305025
21
6.2902396
0
LINE
8
DEFAULT_255_2_778
10
14.305025
20
6.2902396
11
14.466725
21
6.2902396
0
LINE
8
DEFAULT_255_2_778
10
14.191025
20
6.6304396
11
13.975925
21
6.6304396
0
LINE
8
DEFAULT_255_2_778
10
13.960825
20
5.7136396
11
14.177025
21
5.7136396
0
LINE
8
DEFAULT_255_2_778
10
14.466425
20
6.0896396
11
14.304825
21
6.0896396
0
LINE
8
DEFAULT_255_2_778
10
14.304825
20
6.0896396
11
14.305025
21
6.0896396
0
LINE
8
DEFAULT_255_1_234
10
7.739977
20
17.2689211
11
7.8949896
21
17.2689211
0
LINE
8
DEFAULT_255_1_234
10
7.8949896
20
17.2689211
11
7.8949896
21
16.473779
0
LINE
8
DEFAULT_255_1_234
10
7.5110725
20
16.0850429
11
7.4701106
21
16.0834365
0
LINE
8
DEFAULT_255_1_234
10
7.0484443
20
16.4721727
11
7.0484443
21
17.2689211
0
LINE
8
DEFAULT_255_1_234
10
7.0484443
20
17.2689211
11
7.2010474
21
17.2689211
0
LINE
8
DEFAULT_255_1_234
10
7.2010474
20
17.2689211
11
7.2010474
21
16.4769917
0
LINE
8
DEFAULT_255_1_234
10
7.739977
20
16.4761885
11
7.739977
21
17.2689211
0
ARC
8
DEFAULT_255_1_234
10
7.4596794
20
16.4717928
40
0.4353147
50
343.0898354
51
0.2614217
0
ARC
8
DEFAULT_255_1_234
10
7.5425195
20
16.4486837
40
0.3493402
50
315.3345598
51
342.7641223
0
ARC
8
DEFAULT_255_1_234
10
7.5201644
20
16.4718682
40
0.3815385
50
284.6606969
51
315.2182466
0
ARC
8
DEFAULT_255_1_234
10
7.4746357
20
16.6264755
40
0.5426573
50
273.8500273
51
285.1797701
0
ARC
8
DEFAULT_255_1_234
10
7.4658408
20
16.6606475
40
0.5772268
50
257.6317484
51
270.4238298
0
ARC
8
DEFAULT_255_1_234
10
7.4233606
20
16.4785198
40
0.3902347
50
230.6087562
51
257.9964012
0
ARC
8
DEFAULT_255_1_234
10
7.4101608
20
16.4578802
40
0.3659186
50
227.7440991
51
230.1551448
0
ARC
8
DEFAULT_255_1_234
10
7.3967439
20
16.4417471
40
0.3449568
50
189.2524587
51
227.5916061
0
ARC
8
DEFAULT_255_1_234
10
7.5489126
20
16.4745013
40
0.5004737
50
180.2665968
51
190.1525252
0
ARC
8
DEFAULT_255_1_234
10
7.5711146
20
16.4741918
40
0.3700778
50
179.5665184
51
191.9952995
0
ARC
8
DEFAULT_255_1_234
10
7.4483252
20
16.4468043
40
0.2442808
50
191.6974072
51
215.1404042
0
ARC
8
DEFAULT_255_1_234
10
7.4245167
20
16.4326108
40
0.2166522
50
215.6950207
51
224.8513522
0
ARC
8
DEFAULT_255_1_234
10
7.430091
20
16.4405697
40
0.2262237
50
225.2846858
51
255.0111758
0
ARC
8
DEFAULT_255_1_234
10
7.462487
20
16.5519455
40
0.3421979
50
254.5944985
51
267.9129803
0
ARC
8
DEFAULT_255_1_234
10
7.4699351
20
16.6603903
40
0.4508556
50
267.4689655
51
270.0223026
0
ARC
8
DEFAULT_255_1_234
10
7.4729496
20
16.6014849
40
0.3919604
50
269.5849941
51
281.1843768
0
ARC
8
DEFAULT_255_1_234
10
7.5008261
20
16.4662059
40
0.2538457
50
280.9344262
51
300.9743589
0
ARC
8
DEFAULT_255_1_234
10
7.5220866
20
16.4270688
40
0.2093566
50
301.4980046
51
315.1466847
0
ARC
8
DEFAULT_255_1_234
10
7.5076405
20
16.4389236
40
0.2279656
50
315.5952539
51
345.6678731
0
ARC
8
DEFAULT_255_1_234
10
7.3956921
20
16.4701009
40
0.3441564
50
345.2524969
51
358.6304371
0
ARC
8
DEFAULT_255_1_234
10
7.2939275
20
16.4760916
40
0.4460494
50
358.1735671
51
0.0124524
0
LINE
8
DEFAULT_255_1_234
10
8.5881286
20
17.2745433
11
8.5881286
21
16.0995
0
LINE
8
DEFAULT_255_1_234
10
8.5881286
20
16.0995
11
8.4387382
21
16.0995
0
LINE
8
DEFAULT_255_1_234
10
8.4387382
20
16.0995
11
8.4387382
21
17.0898133
0
LINE
8
DEFAULT_255_1_234
10
8.4387382
20
17.0898133
11
8.1391544
21
16.9797785
0
LINE
8
DEFAULT_255_1_234
10
8.1391544
20
16.9797785
11
8.1391544
21
17.1147117
0
LINE
8
DEFAULT_255_1_234
10
8.1391544
20
17.1147117
11
8.5648365
21
17.2745433
0
LINE
8
DEFAULT_255_1_234
10
8.5648365
20
17.2745433
11
8.5881286
21
17.2745433
0
LINE
8
DEFAULT_255_1_234
10
9.1166169
20
17.2689211
11
9.4491309
21
16.3043093
0
LINE
8
DEFAULT_255_1_234
10
9.4491309
20
16.3043093
11
9.7832512
21
17.2689211
0
LINE
8
DEFAULT_255_1_234
10
9.7832512
20
17.2689211
11
9.9519177
21
17.2689211
0
LINE
8
DEFAULT_255_1_234
10
9.9519177
20
17.2689211
11
9.5182039
21
16.0995
0
LINE
8
DEFAULT_255_1_234
10
9.5182039
20
16.0995
11
9.3816643
21
16.0995
0
LINE
8
DEFAULT_255_1_234
10
9.3816643
20
16.0995
11
8.9487536
21
17.2689211
0
LINE
8
DEFAULT_255_1_234
10
8.9487536
20
17.2689211
11
9.1166169
21
17.2689211
0
LINE
8
DEFAULT_255_1_234
10
10.558314
20
17.2745433
11
10.558314
21
16.0995
0
LINE
8
DEFAULT_255_1_234
10
10.558314
20
16.0995
11
10.4089236
21
16.0995
0
LINE
8
DEFAULT_255_1_234
10
10.4089236
20
16.0995
11
10.4089236
21
17.0898133
0
LINE
8
DEFAULT_255_1_234
10
10.4089236
20
17.0898133
11
10.1093398
21
16.9797785
0
LINE
8
DEFAULT_255_1_234
10
10.1093398
20
16.9797785
11
10.1093398
21
17.1147117
0
LINE
8
DEFAULT_255_1_234
10
10.1093398
20
17.1147117
11
10.5350219
21
17.2745433
0
LINE
8
DEFAULT_255_1_234
10
10.5350219
20
17.2745433
11
10.558314
21
17.2745433
0
LINE
8
DEFAULT_255_1_234
10
11.0996531
20
17.2689211
11
11.2843831
21
16.4681568
0
LINE
8
DEFAULT_255_1_234
10
11.2843831
20
16.4681568
11
11.306872
21
16.3139474
0
LINE
8
DEFAULT_255_1_234
10
11.306872
20
16.3139474
11
11.3398021
21
16.4528965
0
LINE
8
DEFAULT_255_1_234
10
11.3398021
20
16.4528965
11
11.5711162
21
17.2689211
0
LINE
8
DEFAULT_255_1_234
10
11.5711162
20
17.2689211
11
11.7012303
21
17.2689211
0
LINE
8
DEFAULT_255_1_234
10
11.7012303
20
17.2689211
11
11.9269222
21
16.4528965
0
LINE
8
DEFAULT_255_1_234
10
11.9269222
20
16.4528965
11
11.9590491
21
16.3115379
0
LINE
8
DEFAULT_255_1_234
10
11.9590491
20
16.3115379
11
11.9839475
21
16.46896
0
LINE
8
DEFAULT_255_1_234
10
11.9839475
20
16.46896
11
12.1654648
21
17.2689211
0
LINE
8
DEFAULT_255_1_234
10
12.1654648
20
17.2689211
11
12.3204773
21
17.2689211
0
LINE
8
DEFAULT_255_1_234
10
12.3204773
20
17.2689211
11
12.036957
21
16.0995
0
LINE
8
DEFAULT_255_1_234
10
12.036957
20
16.0995
11
11.8964016
21
16.0995
0
LINE
8
DEFAULT_255_1_234
10
11.8964016
20
16.0995
11
11.6554494
21
16.9516674
0
LINE
8
DEFAULT_255_1_234
10
11.6554494
20
16.9516674
11
11.6369764
21
17.0408197
0
LINE
8
DEFAULT_255_1_234
10
11.6369764
20
17.0408197
11
11.6185034
21
16.9516674
0
LINE
8
DEFAULT_255_1_234
10
11.6185034
20
16.9516674
11
11.3687164
21
16.0995
0
LINE
8
DEFAULT_255_1_234
10
11.3687164
20
16.0995
11
11.2281609
21
16.0995
0
LINE
8
DEFAULT_255_1_234
10
11.2281609
20
16.0995
11
10.9454438
21
17.2689211
0
LINE
8
DEFAULT_255_1_234
10
10.9454438
20
17.2689211
11
11.0996531
21
17.2689211
0
LINE
8
DEFAULT_255_1_234
10
12.9413307
20
17.2745433
11
12.9413307
21
16.0995
0
LINE
8
DEFAULT_255_1_234
10
12.9413307
20
16.0995
11
12.7919404
21
16.0995
0
LINE
8
DEFAULT_255_1_234
10
12.7919404
20
16.0995
11
12.7919404
21
17.0898133
0
LINE
8
DEFAULT_255_1_234
10
12.7919404
20
17.0898133
11
12.4923565
21
16.9797785
0
LINE
8
DEFAULT_255_1_234
10
12.4923565
20
16.9797785
11
12.4923565
21
17.1147117
0
LINE
8
DEFAULT_255_1_234
10
12.4923565
20
17.1147117
11
12.9180387
21
17.2745433
0
LINE
8
DEFAULT_255_1_234
10
12.9180387
20
17.2745433
11
12.9413307
21
17.2745433
0
LINE
8
DEFAULT_255_1_234
10
7.748277
20
-0.6724789
11
7.9032896
21
-0.6724789
0
LINE
8
DEFAULT_255_1_234
10
7.9032896
20
-0.6724789
11
7.9032896
21
-1.467621
0
LINE
8
DEFAULT_255_1_234
10
7.5193725
20
-1.8563571
11
7.4784106
21
-1.8579635
0
LINE
8
DEFAULT_255_1_234
10
7.0567443
20
-1.4692273
11
7.0567443
21
-0.6724789
0
LINE
8
DEFAULT_255_1_234
10
7.0567443
20
-0.6724789
11
7.2093474
21
-0.6724789
0
LINE
8
DEFAULT_255_1_234
10
7.2093474
20
-0.6724789
11
7.2093474
21
-1.4644083
0
LINE
8
DEFAULT_255_1_234
10
7.748277
20
-1.4652115
11
7.748277
21
-0.6724789
0
ARC
8
DEFAULT_255_1_234
10
7.4679794
20
-1.4696072
40
0.4353147
50
343.0898354
51
0.2614217
0
ARC
8
DEFAULT_255_1_234
10
7.5508195
20
-1.4927163
40
0.3493402
50
315.3345598
51
342.7641223
0
ARC
8
DEFAULT_255_1_234
10
7.5284644
20
-1.4695318
40
0.3815385
50
284.6606969
51
315.2182466
0
ARC
8
DEFAULT_255_1_234
10
7.4829357
20
-1.3149245
40
0.5426573
50
273.8500273
51
285.1797701
0
ARC
8
DEFAULT_255_1_234
10
7.4741408
20
-1.2807525
40
0.5772268
50
257.6317484
51
270.4238298
0
ARC
8
DEFAULT_255_1_234
10
7.4316606
20
-1.4628802
40
0.3902347
50
230.6087562
51
257.9964012
0
ARC
8
DEFAULT_255_1_234
10
7.4184608
20
-1.4835198
40
0.3659186
50
227.7440991
51
230.1551448
0
ARC
8
DEFAULT_255_1_234
10
7.4050439
20
-1.4996529
40
0.3449568
50
189.2524587
51
227.5916061
0
ARC
8
DEFAULT_255_1_234
10
7.5572126
20
-1.4668987
40
0.5004737
50
180.2665968
51
190.1525252
0
ARC
8
DEFAULT_255_1_234
10
7.5794146
20
-1.4672082
40
0.3700778
50
179.5665184
51
191.9952995
0
ARC
8
DEFAULT_255_1_234
10
7.4566252
20
-1.4945957
40
0.2442808
50
191.6974072
51
215.1404042
0
ARC
8
DEFAULT_255_1_234
10
7.4328167
20
-1.5087892
40
0.2166522
50
215.6950207
51
224.8513522
0
ARC
8
DEFAULT_255_1_234
10
7.438391
20
-1.5008303
40
0.2262237
50
225.2846858
51
255.0111758
0
ARC
8
DEFAULT_255_1_234
10
7.470787
20
-1.3894545
40
0.3421979
50
254.5944985
51
267.9129803
0
ARC
8
DEFAULT_255_1_234
10
7.4782351
20
-1.2810097
40
0.4508556
50
267.4689655
51
270.0223026
0
ARC
8
DEFAULT_255_1_234
10
7.4812496
20
-1.3399151
40
0.3919604
50
269.5849941
51
281.1843768
0
ARC
8
DEFAULT_255_1_234
10
7.5091261
20
-1.4751941
40
0.2538457
50
280.9344262
51
300.9743589
0
ARC
8
DEFAULT_255_1_234
10
7.5303866
20
-1.5143312
40
0.2093566
50
301.4980046
51
315.1466847
0
ARC
8
DEFAULT_255_1_234
10
7.5159405
20
-1.5024764
40
0.2279656
50
315.5952539
51
345.6678731
0
ARC
8
DEFAULT_255_1_234
10
7.4039921
20
-1.4712991
40
0.3441564
50
345.2524969
51
358.6304371
0
ARC
8
DEFAULT_255_1_234
10
7.3022275
20
-1.4653084
40
0.4460494
50
358.1735671
51
0.0124524
0
LINE
8
DEFAULT_255_1_234
10
8.8743267
20
-1.7206208
11
8.8743267
21
-1.8419
0
LINE
8
DEFAULT_255_1_234
10
8.8743267
20
-1.8419
11
8.1080989
21
-1.8419
0
LINE
8
DEFAULT_255_1_234
10
8.1080989
20
-1.8419
11
8.1080989
21
-1.7350779
0
LINE
8
DEFAULT_255_1_234
10
8.1080989
20
-1.7350779
11
8.5128985
21
-1.2853005
0
LINE
8
DEFAULT_255_1_234
10
8.2341972
20
-1.0170405
11
8.08561
21
-1.0170405
0
LINE
8
DEFAULT_255_1_234
10
8.6004444
20
-1.3808782
11
8.2872066
21
-1.7206208
0
LINE
8
DEFAULT_255_1_234
10
8.2872066
20
-1.7206208
11
8.8743267
21
-1.7206208
0
ARC
8
DEFAULT_255_1_234
10
7.1638818
20
-0.0923473
40
1.8008286
50
318.5132453
51
320.7828378
0
ARC
8
DEFAULT_255_1_234
10
7.6925793
20
-0.5226574
40
1.1191493
50
320.7372736
51
323.9737074
0
ARC
8
DEFAULT_255_1_234
10
8.0845649
20
-0.8066639
40
0.6350923
50
323.8961724
51
328.6421089
0
ARC
8
DEFAULT_255_1_234
10
8.2892244
20
-0.9328969
40
0.3946393
50
328.8299013
51
331.789948
0
ARC
8
DEFAULT_255_1_234
10
8.3889423
20
-0.9843491
40
0.2824501
50
331.4255242
51
352.9364833
0
ARC
8
DEFAULT_255_1_234
10
8.4025924
20
-0.9874024
40
0.2685315
50
353.2248685
51
0.0169286
0
ARC
8
DEFAULT_255_1_234
10
8.42358
20
-0.985105
40
0.2475536
50
359.4866256
51
15.9339782
0
ARC
8
DEFAULT_255_1_234
10
8.4742786
20
-0.9714714
40
0.1950618
50
16.1714718
51
43.5284424
0
ARC
8
DEFAULT_255_1_234
10
8.4820094
20
-0.9637427
40
0.184134
50
43.4415429
51
83.1661404
0
ARC
8
DEFAULT_255_1_234
10
8.4686012
20
-1.0374229
40
0.258926
50
82.160215
51
90.1505798
0
ARC
8
DEFAULT_255_1_234
10
8.465444
20
-1.0911135
40
0.3126255
50
89.5460705
51
102.5418777
0
ARC
8
DEFAULT_255_1_234
10
8.4411526
20
-0.9880335
40
0.2067346
50
102.1739365
51
129.2061916
0
ARC
8
DEFAULT_255_1_234
10
8.4332598
20
-0.9755906
40
0.1921118
50
129.7279328
51
135.7542026
0
ARC
8
DEFAULT_255_1_234
10
8.4454125
20
-0.9852955
40
0.2075944
50
136.175737
51
166.3674722
0
ARC
8
DEFAULT_255_1_234
10
8.5461045
20
-1.0122818
40
0.3118201
50
165.9092917
51
178.8683903
0
ARC
8
DEFAULT_255_1_234
10
8.6325906
20
-1.0169821
40
0.3983935
50
178.438168
51
180.0083905
0
ARC
8
DEFAULT_255_1_234
10
8.4924508
20
-1.0130769
40
0.4068601
50
163.2878735
51
180.5581814
0
ARC
8
DEFAULT_255_1_234
10
8.4122769
20
-0.991016
40
0.3237344
50
133.454115
51
162.9470031
0
ARC
8
DEFAULT_255_1_234
10
8.4301311
20
-1.01
40
0.349795
50
100.7869394
51
133.4384016
0
ARC
8
DEFAULT_255_1_234
10
8.4649082
20
-1.1648681
40
0.5084616
50
89.6605301
51
101.3704185
0
ARC
8
DEFAULT_255_1_234
10
8.4715421
20
-1.1587504
40
0.502348
50
78.2171172
51
90.4130393
0
ARC
8
DEFAULT_255_1_234
10
8.5070499
20
-0.9963363
40
0.3361092
50
55.9268222
51
78.4888551
0
ARC
8
DEFAULT_255_1_234
10
8.5266939
20
-0.9624676
40
0.2970617
50
47.9292255
51
55.4054003
0
ARC
8
DEFAULT_255_1_234
10
8.53685
20
-0.9521498
40
0.2825983
50
4.3347696
51
48.0560701
0
ARC
8
DEFAULT_255_1_234
10
8.4272894
20
-0.9691399
40
0.393225
50
359.925209
51
5.5967654
0
ARC
8
DEFAULT_255_1_234
10
8.4701785
20
-0.9635184
40
0.3503892
50
337.8914096
51
358.9967724
0
ARC
8
DEFAULT_255_1_234
10
8.1988198
20
-0.8588294
40
0.6412172
50
326.9135351
51
338.3505194
0
ARC
8
DEFAULT_255_1_234
10
7.8002501
20
-0.6033716
40
1.1146189
50
319.6472867
51
327.095818
0
ARC
8
DEFAULT_255_1_234
10
7.4169504
20
-0.2872
40
1.6114559
50
317.2586784
51
319.9046139
0
LINE
8
DEFAULT_255_1_234
10
9.1249169
20
-0.6724789
11
9.4574309
21
-1.6370907
0
LINE
8
DEFAULT_255_1_234
10
9.4574309
20
-1.6370907
11
9.7915512
21
-0.6724789
0
LINE
8
DEFAULT_255_1_234
10
9.7915512
20
-0.6724789
11
9.9602177
21
-0.6724789
0
LINE
8
DEFAULT_255_1_234
10
9.9602177
20
-0.6724789
11
9.5265039
21
-1.8419
0
LINE
8
DEFAULT_255_1_234
10
9.5265039
20
-1.8419
11
9.3899643
21
-1.8419
0
LINE
8
DEFAULT_255_1_234
10
9.3899643
20
-1.8419
11
8.9570536
21
-0.6724789
0
LINE
8
DEFAULT_255_1_234
10
8.9570536
20
-0.6724789
11
9.1249169
21
-0.6724789
0
LINE
8
DEFAULT_255_1_234
10
10.8445121
20
-1.7206208
11
10.8445121
21
-1.8419
0
LINE
8
DEFAULT_255_1_234
10
10.8445121
20
-1.8419
11
10.0782843
21
-1.8419
0
LINE
8
DEFAULT_255_1_234
10
10.0782843
20
-1.8419
11
10.0782843
21
-1.7350779
0
LINE
8
DEFAULT_255_1_234
10
10.0782843
20
-1.7350779
11
10.4830839
21
-1.2853005
0
LINE
8
DEFAULT_255_1_234
10
10.2043826
20
-1.0170405
11
10.0557954
21
-1.0170405
0
LINE
8
DEFAULT_255_1_234
10
10.5706298
20
-1.3808782
11
10.257392
21
-1.7206208
0
LINE
8
DEFAULT_255_1_234
10
10.257392
20
-1.7206208
11
10.8445121
21
-1.7206208
0
ARC
8
DEFAULT_255_1_234
10
9.1340672
20
-0.0923473
40
1.8008286
50
318.5132453
51
320.7828378
0
ARC
8
DEFAULT_255_1_234
10
9.6627647
20
-0.5226574
40
1.1191493
50
320.7372736
51
323.9737074
0
ARC
8
DEFAULT_255_1_234
10
10.0547503
20
-0.8066639
40
0.6350923
50
323.8961724
51
328.6421089
0
ARC
8
DEFAULT_255_1_234
10
10.2594098
20
-0.9328969
40
0.3946393
50
328.8299013
51
331.789948
0
ARC
8
DEFAULT_255_1_234
10
10.3591277
20
-0.9843491
40
0.2824501
50
331.4255242
51
352.9364833
0
ARC
8
DEFAULT_255_1_234
10
10.3727778
20
-0.9874024
40
0.2685315
50
353.2248685
51
0.0169286
0
ARC
8
DEFAULT_255_1_234
10
10.3937654
20
-0.985105
40
0.2475536
50
359.4866256
51
15.9339782
0
ARC
8
DEFAULT_255_1_234
10
10.444464
20
-0.9714714
40
0.1950618
50
16.1714718
51
43.5284424
0
ARC
8
DEFAULT_255_1_234
10
10.4521948
20
-0.9637427
40
0.184134
50
43.4415429
51
83.1661404
0
ARC
8
DEFAULT_255_1_234
10
10.4387866
20
-1.0374229
40
0.258926
50
82.160215
51
90.1505798
0
ARC
8
DEFAULT_255_1_234
10
10.4356294
20
-1.0911135
40
0.3126255
50
89.5460705
51
102.5418777
0
ARC
8
DEFAULT_255_1_234
10
10.411338
20
-0.9880335
40
0.2067346
50
102.1739365
51
129.2061916
0
ARC
8
DEFAULT_255_1_234
10
10.4034452
20
-0.9755906
40
0.1921118
50
129.7279328
51
135.7542026
0
ARC
8
DEFAULT_255_1_234
10
10.4155979
20
-0.9852955
40
0.2075944
50
136.175737
51
166.3674722
0
ARC
8
DEFAULT_255_1_234
10
10.5162899
20
-1.0122818
40
0.3118201
50
165.9092917
51
178.8683903
0
ARC
8
DEFAULT_255_1_234
10
10.602776
20
-1.0169821
40
0.3983935
50
178.438168
51
180.0083905
0
ARC
8
DEFAULT_255_1_234
10
10.4626362
20
-1.0130769
40
0.4068601
50
163.2878735
51
180.5581814
0
ARC
8
DEFAULT_255_1_234
10
10.3824623
20
-0.991016
40
0.3237344
50
133.454115
51
162.9470031
0
ARC
8
DEFAULT_255_1_234
10
10.4003165
20
-1.01
40
0.349795
50
100.7869394
51
133.4384016
0
ARC
8
DEFAULT_255_1_234
10
10.4350936
20
-1.1648681
40
0.5084616
50
89.6605301
51
101.3704185
0
ARC
8
DEFAULT_255_1_234
10
10.4417275
20
-1.1587504
40
0.502348
50
78.2171172
51
90.4130393
0
ARC
8
DEFAULT_255_1_234
10
10.4772353
20
-0.9963363
40
0.3361092
50
55.9268222
51
78.4888551
0
ARC
8
DEFAULT_255_1_234
10
10.4968793
20
-0.9624676
40
0.2970617
50
47.9292255
51
55.4054003
0
ARC
8
DEFAULT_255_1_234
10
10.5070354
20
-0.9521498
40
0.2825983
50
4.3347696
51
48.0560701
0
ARC
8
DEFAULT_255_1_234
10
10.3974748
20
-0.9691399
40
0.393225
50
359.925209
51
5.5967654
0
ARC
8
DEFAULT_255_1_234
10
10.4403639
20
-0.9635184
40
0.3503892
50
337.8914096
51
358.9967724
0
ARC
8
DEFAULT_255_1_234
10
10.1690052
20
-0.8588294
40
0.6412172
50
326.9135351
51
338.3505194
0
ARC
8
DEFAULT_255_1_234
10
9.7704355
20
-0.6033716
40
1.1146189
50
319.6472867
51
327.095818
0
ARC
8
DEFAULT_255_1_234
10
9.3871358
20
-0.2872
40
1.6114559
50
317.2586784
51
319.9046139
0
LINE
8
DEFAULT_255_1_234
10
11.1079531
20
-0.6724789
11
11.2926831
21
-1.4732432
0
LINE
8
DEFAULT_255_1_234
10
11.2926831
20
-1.4732432
11
11.315172
21
-1.6274526
0
LINE
8
DEFAULT_255_1_234
10
11.315172
20
-1.6274526
11
11.3481021
21
-1.4885035
0
LINE
8
DEFAULT_255_1_234
10
11.3481021
20
-1.4885035
11
11.5794162
21
-0.6724789
0
LINE
8
DEFAULT_255_1_234
10
11.5794162
20
-0.6724789
11
11.7095303
21
-0.6724789
0
LINE
8
DEFAULT_255_1_234
10
11.7095303
20
-0.6724789
11
11.9352222
21
-1.4885035
0
LINE
8
DEFAULT_255_1_234
10
11.9352222
20
-1.4885035
11
11.9673491
21
-1.6298621
0
LINE
8
DEFAULT_255_1_234
10
11.9673491
20
-1.6298621
11
11.9922475
21
-1.47244
0
LINE
8
DEFAULT_255_1_234
10
11.9922475
20
-1.47244
11
12.1737648
21
-0.6724789
0
LINE
8
DEFAULT_255_1_234
10
12.1737648
20
-0.6724789
11
12.3287773
21
-0.6724789
0
LINE
8
DEFAULT_255_1_234
10
12.3287773
20
-0.6724789
11
12.045257
21
-1.8419
0
LINE
8
DEFAULT_255_1_234
10
12.045257
20
-1.8419
11
11.9047016
21
-1.8419
0
LINE
8
DEFAULT_255_1_234
10
11.9047016
20
-1.8419
11
11.6637494
21
-0.9897326
0
LINE
8
DEFAULT_255_1_234
10
11.6637494
20
-0.9897326
11
11.6452764
21
-0.9005803
0
LINE
8
DEFAULT_255_1_234
10
11.6452764
20
-0.9005803
11
11.6268034
21
-0.9897326
0
LINE
8
DEFAULT_255_1_234
10
11.6268034
20
-0.9897326
11
11.3770164
21
-1.8419
0
LINE
8
DEFAULT_255_1_234
10
11.3770164
20
-1.8419
11
11.2364609
21
-1.8419
0
LINE
8
DEFAULT_255_1_234
10
11.2364609
20
-1.8419
11
10.9537438
21
-0.6724789
0
LINE
8
DEFAULT_255_1_234
10
10.9537438
20
-0.6724789
11
11.1079531
21
-0.6724789
0
LINE
8
DEFAULT_255_1_234
10
13.2275289
20
-1.7206208
11
13.2275289
21
-1.8419
0
LINE
8
DEFAULT_255_1_234
10
13.2275289
20
-1.8419
11
12.461301
21
-1.8419
0
LINE
8
DEFAULT_255_1_234
10
12.461301
20
-1.8419
11
12.461301
21
-1.7350779
0
LINE
8
DEFAULT_255_1_234
10
12.461301
20
-1.7350779
11
12.8661006
21
-1.2853005
0
LINE
8
DEFAULT_255_1_234
10
12.5873993
20
-1.0170405
11
12.4388122
21
-1.0170405
0
LINE
8
DEFAULT_255_1_234
10
12.9536466
20
-1.3808782
11
12.6404088
21
-1.7206208
0
LINE
8
DEFAULT_255_1_234
10
12.6404088
20
-1.7206208
11
13.2275289
21
-1.7206208
0
ARC
8
DEFAULT_255_1_234
10
11.517084
20
-0.0923473
40
1.8008286
50
318.5132453
51
320.7828378
0
ARC
8
DEFAULT_255_1_234
10
12.0457814
20
-0.5226574
40
1.1191493
50
320.7372736
51
323.9737074
0
ARC
8
DEFAULT_255_1_234
10
12.437767
20
-0.8066639
40
0.6350923
50
323.8961724
51
328.6421089
0
ARC
8
DEFAULT_255_1_234
10
12.6424266
20
-0.9328969
40
0.3946393
50
328.8299013
51
331.789948
0
ARC
8
DEFAULT_255_1_234
10
12.7421444
20
-0.9843491
40
0.2824501
50
331.4255242
51
352.9364833
0
ARC
8
DEFAULT_255_1_234
10
12.7557945
20
-0.9874024
40
0.2685315
50
353.2248685
51
0.0169286
0
ARC
8
DEFAULT_255_1_234
10
12.7767822
20
-0.985105
40
0.2475536
50
359.4866256
51
15.9339782
0
ARC
8
DEFAULT_255_1_234
10
12.8274807
20
-0.9714714
40
0.1950618
50
16.1714718
51
43.5284424
0
ARC
8
DEFAULT_255_1_234
10
12.8352116
20
-0.9637427
40
0.184134
50
43.4415429
51
83.1661404
0
ARC
8
DEFAULT_255_1_234
10
12.8218034
20
-1.0374229
40
0.258926
50
82.160215
51
90.1505798
0
ARC
8
DEFAULT_255_1_234
10
12.8186461
20
-1.0911135
40
0.3126255
50
89.5460705
51
102.5418777
0
ARC
8
DEFAULT_255_1_234
10
12.7943547
20
-0.9880335
40
0.2067346
50
102.1739365
51
129.2061916
0
ARC
8
DEFAULT_255_1_234
10
12.7864619
20
-0.9755906
40
0.1921118
50
129.7279328
51
135.7542026
0
ARC
8
DEFAULT_255_1_234
10
12.7986147
20
-0.9852955
40
0.2075944
50
136.175737
51
166.3674722
0
ARC
8
DEFAULT_255_1_234
10
12.8993066
20
-1.0122818
40
0.3118201
50
165.9092917
51
178.8683903
0
ARC
8
DEFAULT_255_1_234
10
12.9857927
20
-1.0169821
40
0.3983935
50
178.438168
51
180.0083905
0
ARC
8
DEFAULT_255_1_234
10
12.8456529
20
-1.0130769
40
0.4068601
50
163.2878735
51
180.5581814
0
ARC
8
DEFAULT_255_1_234
10
12.7654791
20
-0.991016
40
0.3237344
50
133.454115
51
162.9470031
0
ARC
8
DEFAULT_255_1_234
10
12.7833332
20
-1.01
40
0.349795
50
100.7869394
51
133.4384016
0
ARC
8
DEFAULT_255_1_234
10
12.8181103
20
-1.1648681
40
0.5084616
50
89.6605301
51
101.3704185
0
ARC
8
DEFAULT_255_1_234
10
12.8247442
20
-1.1587504
40
0.502348
50
78.2171172
51
90.4130393
0
ARC
8
DEFAULT_255_1_234
10
12.8602521
20
-0.9963363
40
0.3361092
50
55.9268222
51
78.4888551
0
ARC
8
DEFAULT_255_1_234
10
12.8798961
20
-0.9624676
40
0.2970617
50
47.9292255
51
55.4054003
0
ARC
8
DEFAULT_255_1_234
10
12.8900521
20
-0.9521498
40
0.2825983
50
4.3347696
51
48.0560701
0
ARC
8
DEFAULT_255_1_234
10
12.7804915
20
-0.9691399
40
0.393225
50
359.925209
51
5.5967654
0
ARC
8
DEFAULT_255_1_234
10
12.8233807
20
-0.9635184
40
0.3503892
50
337.8914096
51
358.9967724
0
ARC
8
DEFAULT_255_1_234
10
12.5520219
20
-0.8588294
40
0.6412172
50
326.9135351
51
338.3505194
0
ARC
8
DEFAULT_255_1_234
10
12.1534523
20
-0.6033716
40
1.1146189
50
319.6472867
51
327.095818
0
ARC
8
DEFAULT_255_1_234
10
11.7701526
20
-0.2872
40
1.6114559
50
317.2586784
51
319.9046139
0
ENDSEC
0
EOF