0
SECTION
2
HEADER
9
$MEASUREMENT
70
1
0
ENDSEC
0
SECTION
2
TABLES
0
TABLE
2
LTYPE
0
LTYPE
72
65
70
64
2
CONTINUOUS
3
______
73
0
40
0
0
ENDTAB
0
TABLE
2
LAYER
0
LAYER
2
DEFAULT_255_2_778
70
0
62
255
6
CONTINUOUS
0
LAYER
2
DEFAULT_255_2_778_3
70
0
62
255
6
CONTINUOUS
0
LAYER
2
DEFAULT_255_1_234
70
0
62
255
6
CONTINUOUS
0
ENDTAB
0
ENDSEC
0
SECTION
2
ENTITIES
0
LINE
8
DEFAULT_255_2_778
10
9.8552
20
10.3187749
11
9.8552
21
6.3500749
0
LINE
8
DEFAULT_255_2_778
10
9.8551417
20
-2.9103918
11
9.8551417
21
1.0583082
0
LINE
8
DEFAULT_255_2_778
10
9.8551417
20
1.0583082
11
8.5322417
21
6.3500082
0
LINE
8
DEFAULT_255_2_778
10
15.1469
20
10.3187749
11
15.1469
21
6.3500749
0
LINE
8
DEFAULT_255_2_778
10
15.1468417
20
-2.9103918
11
15.1468417
21
1.0583082
0
LINE
8
DEFAULT_255_2_778
10
15.1468417
20
1.0583082
11
13.8239417
21
6.3500082
0
LINE
8
DEFAULT_255_2_778
10
20.4385
20
10.3187749
11
20.4385
21
6.3500749
0
LINE
8
DEFAULT_255_2_778
10
20.4385417
20
-2.9103918
11
20.4385417
21
1.0583082
0
LINE
8
DEFAULT_255_2_778
10
20.4385417
20
1.0583082
11
19.1156417
21
6.3500082
0
LINE
8
DEFAULT_255_2_778_3
10
19.7770335
20
3.7042
11
9.1937335
21
3.7042
0
LINE
8
DEFAULT_255_2_778
10
9.1937417
20
6.35
11
10.5166417
21
6.35
0
LINE
8
DEFAULT_255_2_778
10
14.4854417
20
6.35
11
15.8083417
21
6.35
0
LINE
8
DEFAULT_255_2_778
10
19.7770417
20
6.35
11
21.0999417
21
6.35
0
LINE
8
DEFAULT_255_1_234
10
7.4772137
20
9.2047433
11
7.4772137
21
8.0297
0
LINE
8
DEFAULT_255_1_234
10
7.4772137
20
8.0297
11
7.3278234
21
8.0297
0
LINE
8
DEFAULT_255_1_234
10
7.3278234
20
8.0297
11
7.3278234
21
9.0200133
0
LINE
8
DEFAULT_255_1_234
10
7.3278234
20
9.0200133
11
7.0282396
21
8.9099785
0
LINE
8
DEFAULT_255_1_234
10
7.0282396
20
8.9099785
11
7.0282396
21
9.0449117
0
LINE
8
DEFAULT_255_1_234
10
7.0282396
20
9.0449117
11
7.4539217
21
9.2047433
0
LINE
8
DEFAULT_255_1_234
10
7.4539217
20
9.2047433
11
7.4772137
21
9.2047433
0
LINE
8
DEFAULT_255_1_234
10
8.1285877
20
8.5654169
11
8.1285877
21
8.6866962
0
LINE
8
DEFAULT_255_1_234
10
8.1285877
20
8.6866962
11
8.2402289
21
8.6866962
0
LINE
8
DEFAULT_255_1_234
10
8.0498767
20
8.8923087
11
7.9012895
21
8.8923087
0
LINE
8
DEFAULT_255_1_234
10
7.8908482
20
8.3381188
11
8.0402386
21
8.3381188
0
LINE
8
DEFAULT_255_1_234
10
8.2402289
20
8.5654169
11
8.1285877
21
8.5654169
0
ARC
8
DEFAULT_255_1_234
10
8.2373155
20
9.0259713
40
0.3392876
50
270.4919872
51
281.8951556
0
ARC
8
DEFAULT_255_1_234
10
8.2614417
20
8.9157702
40
0.2264817
50
281.6691735
51
301.2943132
0
ARC
8
DEFAULT_255_1_234
10
8.2784627
20
8.8846304
40
0.1910381
50
301.7833094
51
311.7545298
0
ARC
8
DEFAULT_255_1_234
10
8.2876203
20
8.8744748
40
0.1773635
50
311.7323931
51
354.2802411
0
ARC
8
DEFAULT_255_1_234
10
8.2149828
20
8.8869722
40
0.2509385
50
353.0937916
51
0.1181479
0
ARC
8
DEFAULT_255_1_234
10
8.1688613
20
8.8917386
40
0.2970898
50
359.1805295
51
15.0453146
0
ARC
8
DEFAULT_255_1_234
10
8.303445
20
8.9309992
40
0.1569564
50
13.9577229
51
77.6713066
0
ARC
8
DEFAULT_255_1_234
10
8.2647979
20
8.7924949
40
0.3006298
50
76.1116566
51
90.7026153
0
ARC
8
DEFAULT_255_1_234
10
8.2588817
20
8.8198545
40
0.2732568
50
89.5324876
51
103.531937
0
ARC
8
DEFAULT_255_1_234
10
8.2388261
20
8.8997884
40
0.1908508
50
103.2931773
51
133.5619022
0
ARC
8
DEFAULT_255_1_234
10
8.234375
20
8.9057375
40
0.1834746
50
133.8349307
51
173.5344437
0
ARC
8
DEFAULT_255_1_234
10
8.3066793
20
8.8929213
40
0.2568033
50
172.5096846
51
180.1366907
0
ARC
8
DEFAULT_255_1_234
10
8.2115687
20
8.8963622
40
0.3103056
50
155.3484492
51
180.7484736
0
ARC
8
DEFAULT_255_1_234
10
8.2066776
20
8.8934846
40
0.3070957
50
131.5744599
51
154.4798489
0
ARC
8
DEFAULT_255_1_234
10
8.2379923
20
8.861831
40
0.3515643
50
96.9875458
51
131.9690667
0
ARC
8
DEFAULT_255_1_234
10
8.2599403
20
8.7372636
40
0.4779224
50
89.8596053
51
97.7825159
0
ARC
8
DEFAULT_255_1_234
10
8.2647466
20
8.7110616
40
0.5041361
50
78.3655447
51
90.4131539
0
ARC
8
DEFAULT_255_1_234
10
8.3005384
20
8.8769887
40
0.3344039
50
56.6229102
51
78.638727
0
ARC
8
DEFAULT_255_1_234
10
8.3220328
20
8.9145805
40
0.2912001
50
47.0253525
51
56.0854072
0
ARC
8
DEFAULT_255_1_234
10
8.3240108
20
8.9185223
40
0.2869704
50
10.9208013
51
46.7778124
0
ARC
8
DEFAULT_255_1_234
10
8.1876174
20
8.8869857
40
0.426899
50
359.6364486
51
11.6087304
0
ARC
8
DEFAULT_255_1_234
10
8.3711018
20
8.8854752
40
0.243409
50
332.3549906
51
359.7179418
0
ARC
8
DEFAULT_255_1_234
10
8.306062
20
8.9163142
40
0.3153459
50
325.2333722
51
332.8745602
0
ARC
8
DEFAULT_255_1_234
10
8.3213244
20
8.9056828
40
0.2967456
50
292.9802137
51
325.2392345
0
ARC
8
DEFAULT_255_1_234
10
8.2938617
20
8.9590863
40
0.3566604
50
292.5402179
51
293.6924929
0
ARC
8
DEFAULT_255_1_234
10
8.3331213
20
8.3136091
40
0.3307468
50
57.6435486
51
72.8625112
0
ARC
8
DEFAULT_255_1_234
10
8.3685713
20
8.3710549
40
0.2632492
50
36.7248896
51
57.4697979
0
ARC
8
DEFAULT_255_1_234
10
8.3674346
20
8.372322
40
0.2634081
50
8.0545065
51
36.356114
0
ARC
8
DEFAULT_255_1_234
10
8.2811531
20
8.3568174
40
0.3510261
50
359.8320645
51
8.5869982
0
ARC
8
DEFAULT_255_1_234
10
8.2436307
20
8.3520101
40
0.3885653
50
343.9829931
51
0.5571613
0
ARC
8
DEFAULT_255_1_234
10
8.3322504
20
8.3277438
40
0.2966924
50
311.6359546
51
343.7651759
0
ARC
8
DEFAULT_255_1_234
10
8.2944074
20
8.3704102
40
0.3537231
50
279.7829875
51
311.6255694
0
ARC
8
DEFAULT_255_1_234
10
8.264285
20
8.514128
40
0.5004971
50
269.7286406
51
280.3856417
0
ARC
8
DEFAULT_255_1_234
10
8.2580922
20
8.5099996
40
0.4963778
50
256.6828919
51
270.4412052
0
ARC
8
DEFAULT_255_1_234
10
8.2242218
20
8.3715394
40
0.3538406
50
229.4223008
51
256.8556159
0
ARC
8
DEFAULT_255_1_234
10
8.1827611
20
8.3248736
40
0.2914296
50
181.818294
51
229.6455059
0
ARC
8
DEFAULT_255_1_234
10
8.2867567
20
8.3379496
40
0.3959084
50
179.9755256
51
183.2323064
0
ARC
8
DEFAULT_255_1_234
10
8.2695313
20
8.3359037
40
0.2293034
50
179.4465117
51
196.2869258
0
ARC
8
DEFAULT_255_1_234
10
8.2207721
20
8.3225651
40
0.1787621
50
196.5661473
51
227.705904
0
ARC
8
DEFAULT_255_1_234
10
8.2371816
20
8.3409155
40
0.2033784
50
227.7652068
51
257.8762805
0
ARC
8
DEFAULT_255_1_234
10
8.2596786
20
8.4352156
40
0.3003081
50
257.4584385
51
270.426602
0
ARC
8
DEFAULT_255_1_234
10
8.2642352
20
8.4641996
40
0.329292
50
269.5962073
51
280.8789248
0
ARC
8
DEFAULT_255_1_234
10
8.2871881
20
8.3495685
40
0.2123908
50
280.6346389
51
299.8595945
0
ARC
8
DEFAULT_255_1_234
10
8.3062788
20
8.3133212
40
0.171457
50
300.3576302
51
314.5517981
0
ARC
8
DEFAULT_255_1_234
10
8.2979848
20
8.3193919
40
0.1816095
50
315.0728369
51
345.0431014
0
ARC
8
DEFAULT_255_1_234
10
8.2056662
20
8.3462841
40
0.2777492
50
344.5986631
51
357.9269593
0
ARC
8
DEFAULT_255_1_234
10
8.1160989
20
8.3524276
40
0.3674917
50
357.4748886
51
0.0231117
0
ARC
8
DEFAULT_255_1_234
10
8.2184098
20
8.3548679
40
0.2651907
50
359.5047933
51
13.4239635
0
ARC
8
DEFAULT_255_1_234
10
8.3050741
20
8.3770478
40
0.1757509
50
12.9498199
51
48.7551375
0
ARC
8
DEFAULT_255_1_234
10
8.2868475
20
8.35214
40
0.2065134
50
49.5088623
51
72.1836453
0
ARC
8
DEFAULT_255_1_234
10
8.2510628
20
8.2459291
40
0.3185836
50
71.9010081
51
84.3554254
0
ARC
8
DEFAULT_255_1_234
10
8.234926
20
8.1098326
40
0.4556151
50
84.0193428
51
89.333121
0
LINE
8
DEFAULT_255_1_234
10
9.0233233
20
8.5854963
11
8.9044536
21
8.6160169
0
LINE
8
DEFAULT_255_1_234
10
8.9044536
20
8.6160169
11
8.9638885
21
9.1991211
0
LINE
8
DEFAULT_255_1_234
10
8.9638885
20
9.1991211
11
9.5630562
21
9.1991211
0
LINE
8
DEFAULT_255_1_234
10
9.5630562
20
9.1991211
11
9.5630562
21
9.0617784
0
LINE
8
DEFAULT_255_1_234
10
9.5630562
20
9.0617784
11
9.0899868
21
9.0617784
0
LINE
8
DEFAULT_255_1_234
10
9.0899868
20
9.0617784
11
9.0546471
21
8.7429184
0
LINE
8
DEFAULT_255_1_234
10
8.8626886
20
8.3373156
11
9.003244
21
8.3373156
0
LINE
8
DEFAULT_255_1_234
10
9.0626789
20
8.6176232
11
9.0233233
21
8.5854963
0
ARC
8
DEFAULT_255_1_234
10
9.2401255
20
8.424923
40
0.3681349
50
93.7182161
51
120.2538958
0
ARC
8
DEFAULT_255_1_234
10
9.2495518
20
8.3441394
40
0.449379
50
89.9660152
51
94.2496022
0
ARC
8
DEFAULT_255_1_234
10
9.2536252
20
8.4030549
40
0.390482
50
73.8043271
51
90.5585896
0
ARC
8
DEFAULT_255_1_234
10
9.2771149
20
8.4888602
40
0.3015334
50
41.3071453
51
73.5430202
0
ARC
8
DEFAULT_255_1_234
10
9.2354976
20
8.4530324
40
0.3564457
50
13.5075983
51
41.2174222
0
ARC
8
DEFAULT_255_1_234
10
9.071318
20
8.4100486
40
0.5261351
50
1.1331335
51
13.8829381
0
ARC
8
DEFAULT_255_1_234
10
8.9301549
20
8.4024665
40
0.6674378
50
359.9919444
51
1.544251
0
ARC
8
DEFAULT_255_1_234
10
9.0578375
20
8.398328
40
0.5397702
50
347.8572367
51
0.4293338
0
ARC
8
DEFAULT_255_1_234
10
9.2328693
20
8.3586736
40
0.3603188
50
323.673004
51
348.1672506
0
ARC
8
DEFAULT_255_1_234
10
9.2623201
20
8.3407168
40
0.3259678
50
316.8171152
51
323.1492751
0
ARC
8
DEFAULT_255_1_234
10
9.268439
20
8.337046
40
0.3189975
50
281.8396411
51
316.5457803
0
ARC
8
DEFAULT_255_1_234
10
9.2308654
20
8.4925762
40
0.4789527
50
269.5770101
51
282.4214771
0
ARC
8
DEFAULT_255_1_234
10
9.2237465
20
8.4712125
40
0.45759
50
256.2427136
51
270.4486331
0
ARC
8
DEFAULT_255_1_234
10
9.1938368
20
8.3512229
40
0.3339303
50
228.9023911
51
256.3314342
0
ARC
8
DEFAULT_255_1_234
10
9.18646
20
8.3395746
40
0.32031
50
193.753695
51
228.5271154
0
ARC
8
DEFAULT_255_1_234
10
9.3102554
20
8.37588
40
0.4492253
50
184.924711
51
194.497588
0
ARC
8
DEFAULT_255_1_234
10
9.3295121
20
8.3794591
40
0.3289787
50
187.3600538
51
198.6732863
0
ARC
8
DEFAULT_255_1_234
10
9.2245415
20
8.3430674
40
0.217884
50
198.4451669
51
217.794479
0
ARC
8
DEFAULT_255_1_234
10
9.194959
20
8.3221085
40
0.1816698
50
218.2887171
51
228.5612368
0
ARC
8
DEFAULT_255_1_234
10
9.2047377
20
8.3352963
40
0.1980329
50
228.9654866
51
258.1234728
0
ARC
8
DEFAULT_255_1_234
10
9.2253087
20
8.4233833
40
0.2884748
50
257.7258293
51
270.401361
0
ARC
8
DEFAULT_255_1_234
10
9.2297974
20
8.3788821
40
0.2439788
50
269.4204404
51
286.4209037
0
ARC
8
DEFAULT_255_1_234
10
9.2446461
20
8.3249657
40
0.1880666
50
286.7251356
51
320.600362
0
ARC
8
DEFAULT_255_1_234
10
9.2063286
20
8.3560595
40
0.2374121
50
320.6712579
51
344.5441685
0
ARC
8
DEFAULT_255_1_234
10
9.0906612
20
8.3900045
40
0.3579479
50
344.2412205
51
356.7357071
0
ARC
8
DEFAULT_255_1_234
10
8.9657761
20
8.4003444
40
0.4832297
50
356.3548756
51
0.0500261
0
ARC
8
DEFAULT_255_1_234
10
9.099427
20
8.403465
40
0.3495889
50
359.5576869
51
12.953486
0
ARC
8
DEFAULT_255_1_234
10
9.2049167
20
8.4290434
40
0.2410532
50
12.6490276
51
41.6081334
0
ARC
8
DEFAULT_255_1_234
10
9.2279538
20
8.4486321
40
0.2108218
50
41.7850273
51
85.9892764
0
ARC
8
DEFAULT_255_1_234
10
9.2156275
20
8.3673462
40
0.2928454
50
84.6957577
51
90.0676183
0
ARC
8
DEFAULT_255_1_234
10
9.2132759
20
8.3004716
40
0.3597255
50
89.6804936
51
99.1614436
0
ARC
8
DEFAULT_255_1_234
10
9.192739
20
8.4232131
40
0.235281
50
98.9830931
51
113.8908934
0
ARC
8
DEFAULT_255_1_234
10
9.16978
20
8.4773587
40
0.176479
50
114.1950727
51
127.3641004
0
LINE
8
DEFAULT_255_1_234
10
7.9585119
20
-1.8529208
11
7.9585119
21
-1.9742
0
LINE
8
DEFAULT_255_1_234
10
7.9585119
20
-1.9742
11
7.192284
21
-1.9742
0
LINE
8
DEFAULT_255_1_234
10
7.192284
20
-1.9742
11
7.192284
21
-1.8673779
0
LINE
8
DEFAULT_255_1_234
10
7.192284
20
-1.8673779
11
7.5970836
21
-1.4176005
0
LINE
8
DEFAULT_255_1_234
10
7.3183823
20
-1.1493405
11
7.1697952
21
-1.1493405
0
LINE
8
DEFAULT_255_1_234
10
7.6846296
20
-1.5131782
11
7.3713918
21
-1.8529208
0
LINE
8
DEFAULT_255_1_234
10
7.3713918
20
-1.8529208
11
7.9585119
21
-1.8529208
0
ARC
8
DEFAULT_255_1_234
10
6.248067
20
-0.2246473
40
1.8008286
50
318.5132453
51
320.7828378
0
ARC
8
DEFAULT_255_1_234
10
6.7767644
20
-0.6549574
40
1.1191493
50
320.7372736
51
323.9737074
0
ARC
8
DEFAULT_255_1_234
10
7.1687501
20
-0.9389639
40
0.6350923
50
323.8961724
51
328.6421089
0
ARC
8
DEFAULT_255_1_234
10
7.3734096
20
-1.0651969
40
0.3946393
50
328.8299013
51
331.789948
0
ARC
8
DEFAULT_255_1_234
10
7.4731274
20
-1.1166491
40
0.2824501
50
331.4255242
51
352.9364833
0
ARC
8
DEFAULT_255_1_234
10
7.4867775
20
-1.1197024
40
0.2685315
50
353.2248685
51
0.0169286
0
ARC
8
DEFAULT_255_1_234
10
7.5077652
20
-1.117405
40
0.2475536
50
359.4866256
51
15.9339782
0
ARC
8
DEFAULT_255_1_234
10
7.5584637
20
-1.1037714
40
0.1950618
50
16.1714718
51
43.5284424
0
ARC
8
DEFAULT_255_1_234
10
7.5661946
20
-1.0960427
40
0.184134
50
43.4415429
51
83.1661404
0
ARC
8
DEFAULT_255_1_234
10
7.5527864
20
-1.1697229
40
0.258926
50
82.160215
51
90.1505798
0
ARC
8
DEFAULT_255_1_234
10
7.5496291
20
-1.2234135
40
0.3126255
50
89.5460705
51
102.5418777
0
ARC
8
DEFAULT_255_1_234
10
7.5253377
20
-1.1203335
40
0.2067346
50
102.1739365
51
129.2061916
0
ARC
8
DEFAULT_255_1_234
10
7.5174449
20
-1.1078906
40
0.1921118
50
129.7279328
51
135.7542026
0
ARC
8
DEFAULT_255_1_234
10
7.5295977
20
-1.1175955
40
0.2075944
50
136.175737
51
166.3674722
0
ARC
8
DEFAULT_255_1_234
10
7.6302896
20
-1.1445818
40
0.3118201
50
165.9092917
51
178.8683903
0
ARC
8
DEFAULT_255_1_234
10
7.7167757
20
-1.1492821
40
0.3983935
50
178.438168
51
180.0083905
0
ARC
8
DEFAULT_255_1_234
10
7.5766359
20
-1.1453769
40
0.4068601
50
163.2878735
51
180.5581814
0
ARC
8
DEFAULT_255_1_234
10
7.4964621
20
-1.123316
40
0.3237344
50
133.454115
51
162.9470031
0
ARC
8
DEFAULT_255_1_234
10
7.5143162
20
-1.1423
40
0.349795
50
100.7869394
51
133.4384016
0
ARC
8
DEFAULT_255_1_234
10
7.5490934
20
-1.2971681
40
0.5084616
50
89.6605301
51
101.3704185
0
ARC
8
DEFAULT_255_1_234
10
7.5557273
20
-1.2910504
40
0.502348
50
78.2171172
51
90.4130393
0
ARC
8
DEFAULT_255_1_234
10
7.5912351
20
-1.1286363
40
0.3361092
50
55.9268222
51
78.4888551
0
ARC
8
DEFAULT_255_1_234
10
7.6108791
20
-1.0947676
40
0.2970617
50
47.9292255
51
55.4054003
0
ARC
8
DEFAULT_255_1_234
10
7.6210352
20
-1.0844498
40
0.2825983
50
4.3347696
51
48.0560701
0
ARC
8
DEFAULT_255_1_234
10
7.5114745
20
-1.1014399
40
0.393225
50
359.925209
51
5.5967654
0
ARC
8
DEFAULT_255_1_234
10
7.5543637
20
-1.0958184
40
0.3503892
50
337.8914096
51
358.9967724
0
ARC
8
DEFAULT_255_1_234
10
7.2830049
20
-0.9911294
40
0.6412172
50
326.9135351
51
338.3505194
0
ARC
8
DEFAULT_255_1_234
10
6.8844353
20
-0.7356716
40
1.1146189
50
319.6472867
51
327.095818
0
ARC
8
DEFAULT_255_1_234
10
6.5011356
20
-0.4195
40
1.6114559
50
317.2586784
51
319.9046139
0
LINE
8
DEFAULT_255_1_234
10
8.7432127
20
-0.8047789
11
8.7432127
21
-1.581448
0
LINE
8
DEFAULT_255_1_234
10
8.7432127
20
-1.581448
11
8.9054538
21
-1.581448
0
LINE
8
DEFAULT_255_1_234
10
8.9054538
20
-1.581448
11
8.9054538
21
-1.7027272
0
LINE
8
DEFAULT_255_1_234
10
8.9054538
20
-1.7027272
11
8.7432127
21
-1.7027272
0
LINE
8
DEFAULT_255_1_234
10
8.7432127
20
-1.7027272
11
8.7432127
21
-1.9742
0
LINE
8
DEFAULT_255_1_234
10
8.7432127
20
-1.9742
11
8.5938224
21
-1.9742
0
LINE
8
DEFAULT_255_1_234
10
8.5938224
20
-1.9742
11
8.5938224
21
-1.7027272
0
LINE
8
DEFAULT_255_1_234
10
8.5938224
20
-1.7027272
11
8.0613181
21
-1.7027272
0
LINE
8
DEFAULT_255_1_234
10
8.0613181
20
-1.7027272
11
8.0613181
21
-1.6151813
0
LINE
8
DEFAULT_255_1_234
10
8.0613181
20
-1.6151813
11
8.5849875
21
-0.8047789
0
LINE
8
DEFAULT_255_1_234
10
8.5849875
20
-0.8047789
11
8.7432127
21
-0.8047789
0
LINE
8
DEFAULT_255_1_234
10
8.5761525
20
-1.0401088
11
8.2299846
21
-1.581448
0
LINE
8
DEFAULT_255_1_234
10
8.2299846
20
-1.581448
11
8.5938224
21
-1.581448
0
LINE
8
DEFAULT_255_1_234
10
8.5938224
20
-1.581448
11
8.5938224
21
-1.0079819
0
LINE
8
DEFAULT_255_1_234
10
8.5938224
20
-1.0079819
11
8.5761525
21
-1.0401088
0
LINE
8
DEFAULT_255_1_234
10
9.5961833
20
-0.8039757
11
9.622688
21
-0.8039757
0
LINE
8
DEFAULT_255_1_234
10
9.622688
20
-0.8039757
11
9.622688
21
-0.930074
0
LINE
8
DEFAULT_255_1_234
10
9.622688
20
-0.930074
11
9.5953801
21
-0.930074
0
LINE
8
DEFAULT_255_1_234
10
9.0484188
20
-1.5292417
11
9.0484188
21
-1.4722164
0
LINE
8
DEFAULT_255_1_234
10
9.1978091
20
-1.4914925
11
9.1978091
21
-1.5461083
0
ARC
8
DEFAULT_255_1_234
10
9.6006149
20
-1.4298545
40
0.4998079
50
90.6001036
51
104.514704
0
ARC
8
DEFAULT_255_1_234
10
9.5617665
20
-1.2853869
40
0.3502176
50
104.2855254
51
133.862935
0
ARC
8
DEFAULT_255_1_234
10
9.5781422
20
-1.296217
40
0.3693984
50
134.5302688
51
161.6210873
0
ARC
8
DEFAULT_255_1_234
10
9.7434611
20
-1.3545105
40
0.5446739
50
161.2849839
51
174.2076652
0
ARC
8
DEFAULT_255_1_234
10
9.8841548
20
-1.3739213
40
0.6866274
50
173.7810589
51
174.9254635
0
ARC
8
DEFAULT_255_1_234
10
9.429138
20
-1.5122161
40
0.3033419
50
95.8330959
51
138.9954921
0
ARC
8
DEFAULT_255_1_234
10
9.4514736
20
-1.6400625
40
0.4328947
50
89.8753725
51
97.0544009
0
ARC
8
DEFAULT_255_1_234
10
9.4562202
20
-1.5565252
40
0.3493769
50
71.6407809
51
90.6240094
0
ARC
8
DEFAULT_255_1_234
10
9.4712775
20
-1.5010918
40
0.2920396
50
39.6367836
51
71.019018
0
ARC
8
DEFAULT_255_1_234
10
9.4076248
20
-1.5561002
40
0.3761538
50
10.658731
51
39.9043955
0
ARC
8
DEFAULT_255_1_234
10
9.2528331
20
-1.5897314
40
0.5345136
50
359.682601
51
11.132623
0
ARC
8
DEFAULT_255_1_234
10
9.2488462
20
-1.596799
40
0.5385081
50
347.2486944
51
0.4369317
0
ARC
8
DEFAULT_255_1_234
10
9.4155939
20
-1.6369193
40
0.3670249
50
318.1409698
51
347.6118597
0
ARC
8
DEFAULT_255_1_234
10
9.4480932
20
-1.6636298
40
0.3250007
50
275.6342139
51
317.8248465
0
ARC
8
DEFAULT_255_1_234
10
9.4260043
20
-1.5336781
40
0.4565864
50
269.8874292
51
276.7917694
0
ARC
8
DEFAULT_255_1_234
10
9.4205114
20
-1.6362257
40
0.3540676
50
246.9140195
51
270.7437342
0
ARC
8
DEFAULT_255_1_234
10
9.4211504
20
-1.6504616
40
0.3412781
50
218.1665114
51
245.878116
0
ARC
8
DEFAULT_255_1_234
10
9.5090965
20
-1.5768721
40
0.455911
50
191.4115814
51
218.6077802
0
ARC
8
DEFAULT_255_1_234
10
9.7029054
20
-1.5334167
40
0.6545001
50
179.6345085
51
191.7836486
0
ARC
8
DEFAULT_255_1_234
10
10.2611391
20
-1.4655303
40
1.2127388
50
171.4525249
51
180.3158839
0
ARC
8
DEFAULT_255_1_234
10
9.8216267
20
-1.3971392
40
0.7679464
50
157.9802646
51
171.6246686
0
ARC
8
DEFAULT_255_1_234
10
9.6002288
20
-1.3088579
40
0.5296008
50
141.4298019
51
157.854097
0
ARC
8
DEFAULT_255_1_234
10
9.5360608
20
-1.2634619
40
0.4511509
50
102.8715806
51
140.8564722
0
ARC
8
DEFAULT_255_1_234
10
9.6008224
20
-1.5074448
40
0.7034845
50
90.3778349
51
103.5869322
0
ARC
8
DEFAULT_255_1_234
10
9.427
20
-1.567927
40
0.2370698
50
89.8751008
51
126.2071704
0
ARC
8
DEFAULT_255_1_234
10
9.431579
20
-1.5833697
40
0.2522934
50
124.9745049
51
144.895901
0
ARC
8
DEFAULT_255_1_234
10
9.413998
20
-1.569044
40
0.2296779
50
145.2974905
51
160.2660252
0
ARC
8
DEFAULT_255_1_234
10
9.7212519
20
-1.5492929
40
0.5234525
50
179.6514266
51
190.2855912
0
ARC
8
DEFAULT_255_1_234
10
9.5518656
20
-1.5812214
40
0.3510893
50
190.0945431
51
207.5098196
0
ARC
8
DEFAULT_255_1_234
10
9.4952926
20
-1.6081377
40
0.288489
50
207.9583163
51
216.3251085
0
ARC
8
DEFAULT_255_1_234
10
9.4613034
20
-1.6360895
40
0.2445587
50
215.7661442
51
232.5456785
0
ARC
8
DEFAULT_255_1_234
10
9.4230017
20
-1.6847518
40
0.1826382
50
232.8005391
51
270.6605633
0
ARC
8
DEFAULT_255_1_234
10
9.4275718
20
-1.6483388
40
0.2190529
50
269.35537
51
288.4744281
0
ARC
8
DEFAULT_255_1_234
10
9.4368615
20
-1.6832882
40
0.1829749
50
289.1833337
51
322.9683818
0
ARC
8
DEFAULT_255_1_234
10
9.3757137
20
-1.6350609
40
0.2608399
50
322.6007884
51
346.5182367
0
ARC
8
DEFAULT_255_1_234
10
9.2599733
20
-1.6055384
40
0.3802777
50
346.2582162
51
358.7741648
0
ARC
8
DEFAULT_255_1_234
10
9.1581402
20
-1.6000035
40
0.4822176
50
358.3755224
51
0.0098023
0
ARC
8
DEFAULT_255_1_234
10
9.2337589
20
-1.5972343
40
0.4066078
50
359.6214041
51
11.2839074
0
ARC
8
DEFAULT_255_1_234
10
9.3614736
20
-1.5705934
40
0.2761514
50
11.0482309
51
31.8146458
0
ARC
8
DEFAULT_255_1_234
10
9.3923779
20
-1.5538416
40
0.2410679
50
32.3035391
51
38.082671
0
ARC
8
DEFAULT_255_1_234
10
9.4344439
20
-1.5157338
40
0.1844966
50
36.825067
51
85.7415724
0
ARC
8
DEFAULT_255_1_234
10
9.4277272
20
-1.5657699
40
0.2349122
50
85.0140713
51
90.0513278
0
ENDSEC
0
EOF