0
SECTION
2
HEADER
9
$MEASUREMENT
70
1
0
ENDSEC
0
SECTION
2
TABLES
0
TABLE
2
LTYPE
0
LTYPE
72
65
70
64
2
CONTINUOUS
3
______
73
0
40
0
0
ENDTAB
0
TABLE
2
LAYER
0
LAYER
2
DEFAULT_255_2_778
70
0
62
255
6
CONTINUOUS
0
LAYER
2
DEFAULT_255_1_234
70
0
62
255
6
CONTINUOUS
0
ENDTAB
0
ENDSEC
0
SECTION
2
ENTITIES
0
ARC
8
DEFAULT_255_2_778
10
7.5362835
20
5.9256728
40
0.7663517
50
255.9563089
51
270.3222725
0
ARC
8
DEFAULT_255_2_778
10
7.5001332
20
5.7815736
40
0.6177871
50
234.8193314
51
255.9658081
0
ARC
8
DEFAULT_255_2_778
10
7.5401396
20
5.8060886
40
0.6611352
50
178.722079
51
233.2094159
0
ARC
8
DEFAULT_255_2_778
10
7.5350478
20
5.8371831
40
0.6560825
50
123.7189479
51
181.4279794
0
ARC
8
DEFAULT_255_2_778
10
7.5047388
20
5.8494233
40
0.6293458
50
102.1408229
51
122.0421755
0
ARC
8
DEFAULT_255_2_778
10
7.5371991
20
5.7038355
40
0.7785052
50
89.7501482
51
102.2228837
0
LINE
8
DEFAULT_255_2_778
10
7.540594
20
10.4510333
11
7.540594
21
5.1593333
0
LINE
8
DEFAULT_255_2_778
10
7.5406417
20
-2.7780918
11
7.5406417
21
1.1906082
0
LINE
8
DEFAULT_255_2_778
10
7.5406417
20
1.1906082
11
6.2177417
21
6.4823082
0
LINE
8
DEFAULT_255_1_234
10
5.0268137
20
9.3370433
11
5.0268137
21
8.162
0
LINE
8
DEFAULT_255_1_234
10
5.0268137
20
8.162
11
4.8774234
21
8.162
0
LINE
8
DEFAULT_255_1_234
10
4.8774234
20
8.162
11
4.8774234
21
9.1523133
0
LINE
8
DEFAULT_255_1_234
10
4.8774234
20
9.1523133
11
4.5778396
21
9.0422785
0
LINE
8
DEFAULT_255_1_234
10
4.5778396
20
9.0422785
11
4.5778396
21
9.1772117
0
LINE
8
DEFAULT_255_1_234
10
4.5778396
20
9.1772117
11
5.0035217
21
9.3370433
0
LINE
8
DEFAULT_255_1_234
10
5.0035217
20
9.3370433
11
5.0268137
21
9.3370433
0
LINE
8
DEFAULT_255_1_234
10
5.2964119
20
-1.7206208
11
5.2964119
21
-1.8419
0
LINE
8
DEFAULT_255_1_234
10
5.2964119
20
-1.8419
11
4.530184
21
-1.8419
0
LINE
8
DEFAULT_255_1_234
10
4.530184
20
-1.8419
11
4.530184
21
-1.7350779
0
LINE
8
DEFAULT_255_1_234
10
4.530184
20
-1.7350779
11
4.9349836
21
-1.2853005
0
LINE
8
DEFAULT_255_1_234
10
4.6562823
20
-1.0170405
11
4.5076952
21
-1.0170405
0
LINE
8
DEFAULT_255_1_234
10
5.0225296
20
-1.3808782
11
4.7092918
21
-1.7206208
0
LINE
8
DEFAULT_255_1_234
10
4.7092918
20
-1.7206208
11
5.2964119
21
-1.7206208
0
ARC
8
DEFAULT_255_1_234
10
3.585967
20
-0.0923473
40
1.8008286
50
318.5132453
51
320.7828378
0
ARC
8
DEFAULT_255_1_234
10
4.1146644
20
-0.5226574
40
1.1191493
50
320.7372736
51
323.9737074
0
ARC
8
DEFAULT_255_1_234
10
4.5066501
20
-0.8066639
40
0.6350923
50
323.8961724
51
328.6421089
0
ARC
8
DEFAULT_255_1_234
10
4.7113096
20
-0.9328969
40
0.3946393
50
328.8299013
51
331.789948
0
ARC
8
DEFAULT_255_1_234
10
4.8110274
20
-0.9843491
40
0.2824501
50
331.4255242
51
352.9364833
0
ARC
8
DEFAULT_255_1_234
10
4.8246775
20
-0.9874024
40
0.2685315
50
353.2248685
51
0.0169286
0
ARC
8
DEFAULT_255_1_234
10
4.8456652
20
-0.985105
40
0.2475536
50
359.4866256
51
15.9339782
0
ARC
8
DEFAULT_255_1_234
10
4.8963637
20
-0.9714714
40
0.1950618
50
16.1714718
51
43.5284424
0
ARC
8
DEFAULT_255_1_234
10
4.9040946
20
-0.9637427
40
0.184134
50
43.4415429
51
83.1661404
0
ARC
8
DEFAULT_255_1_234
10
4.8906864
20
-1.0374229
40
0.258926
50
82.160215
51
90.1505798
0
ARC
8
DEFAULT_255_1_234
10
4.8875291
20
-1.0911135
40
0.3126255
50
89.5460705
51
102.5418777
0
ARC
8
DEFAULT_255_1_234
10
4.8632377
20
-0.9880335
40
0.2067346
50
102.1739365
51
129.2061916
0
ARC
8
DEFAULT_255_1_234
10
4.8553449
20
-0.9755906
40
0.1921118
50
129.7279328
51
135.7542026
0
ARC
8
DEFAULT_255_1_234
10
4.8674977
20
-0.9852955
40
0.2075944
50
136.175737
51
166.3674722
0
ARC
8
DEFAULT_255_1_234
10
4.9681896
20
-1.0122818
40
0.3118201
50
165.9092917
51
178.8683903
0
ARC
8
DEFAULT_255_1_234
10
5.0546757
20
-1.0169821
40
0.3983935
50
178.438168
51
180.0083905
0
ARC
8
DEFAULT_255_1_234
10
4.9145359
20
-1.0130769
40
0.4068601
50
163.2878735
51
180.5581814
0
ARC
8
DEFAULT_255_1_234
10
4.8343621
20
-0.991016
40
0.3237344
50
133.454115
51
162.9470031
0
ARC
8
DEFAULT_255_1_234
10
4.8522162
20
-1.01
40
0.349795
50
100.7869394
51
133.4384016
0
ARC
8
DEFAULT_255_1_234
10
4.8869934
20
-1.1648681
40
0.5084616
50
89.6605301
51
101.3704185
0
ARC
8
DEFAULT_255_1_234
10
4.8936273
20
-1.1587504
40
0.502348
50
78.2171172
51
90.4130393
0
ARC
8
DEFAULT_255_1_234
10
4.9291351
20
-0.9963363
40
0.3361092
50
55.9268222
51
78.4888551
0
ARC
8
DEFAULT_255_1_234
10
4.9487791
20
-0.9624676
40
0.2970617
50
47.9292255
51
55.4054003
0
ARC
8
DEFAULT_255_1_234
10
4.9589352
20
-0.9521498
40
0.2825983
50
4.3347696
51
48.0560701
0
ARC
8
DEFAULT_255_1_234
10
4.8493745
20
-0.9691399
40
0.393225
50
359.925209
51
5.5967654
0
ARC
8
DEFAULT_255_1_234
10
4.8922637
20
-0.9635184
40
0.3503892
50
337.8914096
51
358.9967724
0
ARC
8
DEFAULT_255_1_234
10
4.6209049
20
-0.8588294
40
0.6412172
50
326.9135351
51
338.3505194
0
ARC
8
DEFAULT_255_1_234
10
4.2223353
20
-0.6033716
40
1.1146189
50
319.6472867
51
327.095818
0
ARC
8
DEFAULT_255_1_234
10
3.8390356
20
-0.2872
40
1.6114559
50
317.2586784
51
319.9046139
0
ENDSEC
0
EOF