0
SECTION
2
HEADER
9
$MEASUREMENT
70
1
0
ENDSEC
0
SECTION
2
TABLES
0
TABLE
2
LTYPE
0
LTYPE
72
65
70
64
2
CONTINUOUS
3
______
73
0
40
0
0
ENDTAB
0
TABLE
2
LAYER
0
LAYER
2
DEFAULT_255_2_778
70
0
62
255
6
CONTINUOUS
0
LAYER
2
DEFAULT_255_1_388
70
0
62
255
6
CONTINUOUS
0
ENDTAB
0
ENDSEC
0
SECTION
2
ENTITIES
0
LINE
8
DEFAULT_255_2_778
10
6.34975
20
5.6885833
11
7.93725
21
5.6885833
0
LINE
8
DEFAULT_255_2_778
10
7.93725
20
5.6885833
11
7.93725
21
1.9843833
0
LINE
8
DEFAULT_255_2_778
10
7.93725
20
1.9843833
11
6.34975
21
1.9843833
0
LINE
8
DEFAULT_255_2_778
10
6.34975
20
1.9843833
11
6.34975
21
5.6885833
0
LINE
8
DEFAULT_255_2_778
10
7.1435
20
10.4510666
11
7.1435
21
6.2177666
0
LINE
8
DEFAULT_255_2_778
10
6.34975
20
6.2177499
11
7.93725
21
6.2177499
0
LINE
8
DEFAULT_255_2_778
10
7.14345
20
5.6885499
11
7.14345
21
1.9844499
0
LINE
8
DEFAULT_255_2_778
10
6.34975
20
1.4552499
11
7.93725
21
1.4552499
0
LINE
8
DEFAULT_255_2_778
10
7.1435
20
1.4552666
11
7.1435
21
-2.7780334
0
LINE
8
DEFAULT_255_2_778
10
11.64145
20
5.6885833
11
13.22895
21
5.6885833
0
LINE
8
DEFAULT_255_2_778
10
13.22895
20
5.6885833
11
13.22895
21
1.9843833
0
LINE
8
DEFAULT_255_2_778
10
13.22895
20
1.9843833
11
11.64145
21
1.9843833
0
LINE
8
DEFAULT_255_2_778
10
11.64145
20
1.9843833
11
11.64145
21
5.6885833
0
LINE
8
DEFAULT_255_2_778
10
12.4352
20
10.4510666
11
12.4352
21
6.2177666
0
LINE
8
DEFAULT_255_2_778
10
11.64145
20
6.2177499
11
13.22895
21
6.2177499
0
LINE
8
DEFAULT_255_2_778
10
12.43515
20
5.6885499
11
12.43515
21
1.9844499
0
LINE
8
DEFAULT_255_2_778
10
11.64145
20
1.4552499
11
13.22895
21
1.4552499
0
LINE
8
DEFAULT_255_2_778
10
12.4352
20
1.4552666
11
12.4352
21
-2.7780334
0
LINE
8
DEFAULT_255_2_778
10
16.93305
20
5.6885833
11
18.52055
21
5.6885833
0
LINE
8
DEFAULT_255_2_778
10
18.52055
20
5.6885833
11
18.52055
21
1.9843833
0
LINE
8
DEFAULT_255_2_778
10
18.52055
20
1.9843833
11
16.93305
21
1.9843833
0
LINE
8
DEFAULT_255_2_778
10
16.93305
20
1.9843833
11
16.93305
21
5.6885833
0
LINE
8
DEFAULT_255_2_778
10
17.7268
20
10.4510666
11
17.7268
21
6.2177666
0
LINE
8
DEFAULT_255_2_778
10
16.93305
20
6.2177499
11
18.52055
21
6.2177499
0
LINE
8
DEFAULT_255_2_778
10
17.72675
20
5.6885499
11
17.72675
21
1.9844499
0
LINE
8
DEFAULT_255_2_778
10
16.93305
20
1.4552499
11
18.52055
21
1.4552499
0
LINE
8
DEFAULT_255_2_778
10
17.7268
20
1.4552666
11
17.7268
21
-2.7780334
0
LINE
8
DEFAULT_255_1_388
10
4.6648985
20
9.4954148
11
4.6648985
21
8.1735
0
LINE
8
DEFAULT_255_1_388
10
4.6648985
20
8.1735
11
4.4968355
21
8.1735
0
LINE
8
DEFAULT_255_1_388
10
4.4968355
20
8.1735
11
4.4968355
21
9.287595
0
LINE
8
DEFAULT_255_1_388
10
4.4968355
20
9.287595
11
4.159806
21
9.1638066
0
LINE
8
DEFAULT_255_1_388
10
4.159806
20
9.1638066
11
4.159806
21
9.3156055
0
LINE
8
DEFAULT_255_1_388
10
4.159806
20
9.3156055
11
4.6386951
21
9.4954148
0
LINE
8
DEFAULT_255_1_388
10
4.6386951
20
9.4954148
11
4.6648985
21
9.4954148
0
LINE
8
DEFAULT_255_1_388
10
5.3976893
20
8.7761775
11
5.3976893
21
8.9126157
0
LINE
8
DEFAULT_255_1_388
10
5.3976893
20
8.9126157
11
5.5232847
21
8.9126157
0
LINE
8
DEFAULT_255_1_388
10
5.3091399
20
9.1439282
11
5.1419805
21
9.1439282
0
LINE
8
DEFAULT_255_1_388
10
5.1302342
20
8.5204688
11
5.2982972
21
8.5204688
0
LINE
8
DEFAULT_255_1_388
10
5.5232847
20
8.7761775
11
5.3976893
21
8.7761775
0
ARC
8
DEFAULT_255_1_388
10
5.5200074
20
9.2942922
40
0.3816905
50
270.491971
51
281.8953028
0
ARC
8
DEFAULT_255_1_388
10
5.5471501
20
9.1703199
40
0.2547877
50
281.6690378
51
301.2943765
0
ARC
8
DEFAULT_255_1_388
10
5.5662952
20
9.1352926
40
0.2149197
50
301.7834992
51
311.754567
0
ARC
8
DEFAULT_255_1_388
10
5.5765993
20
9.123865
40
0.1995326
50
311.7325027
51
354.2803031
0
ARC
8
DEFAULT_255_1_388
10
5.4948409
20
9.137928
40
0.2823461
50
353.0941646
51
0.1174696
0
ARC
8
DEFAULT_255_1_388
10
5.4429967
20
9.1432874
40
0.3342238
50
359.1804452
51
15.0452323
0
ARC
8
DEFAULT_255_1_388
10
5.5944026
20
9.1874546
40
0.1765747
50
13.957816
51
77.6713812
0
ARC
8
DEFAULT_255_1_388
10
5.5509261
20
9.0316464
40
0.3381982
50
76.111571
51
90.7028736
0
ARC
8
DEFAULT_255_1_388
10
5.5442673
20
9.062425
40
0.3074046
50
89.5321574
51
103.5319393
0
ARC
8
DEFAULT_255_1_388
10
5.5217057
20
9.1523443
40
0.2147041
50
103.2930114
51
133.5619756
0
ARC
8
DEFAULT_255_1_388
10
5.5166999
20
9.1590351
40
0.2064084
50
133.8349761
51
173.5343225
0
ARC
8
DEFAULT_255_1_388
10
5.5980656
20
9.1446144
40
0.2889266
50
172.5097183
51
180.1360699
0
ARC
8
DEFAULT_255_1_388
10
5.491042
20
9.148488
40
0.3490913
50
155.3483706
51
180.7484035
0
ARC
8
DEFAULT_255_1_388
10
5.4855396
20
9.1452519
40
0.3454798
50
131.5745177
51
154.4799474
0
ARC
8
DEFAULT_255_1_388
10
5.5207678
20
9.1096422
40
0.3955058
50
96.9874487
51
131.9690874
0
ARC
8
DEFAULT_255_1_388
10
5.5454571
20
8.9695407
40
0.537622
50
89.8592909
51
97.7827481
0
ARC
8
DEFAULT_255_1_388
10
5.550868
20
8.940036
40
0.5671399
50
78.3654493
51
90.4132586
0
ARC
8
DEFAULT_255_1_388
10
5.5911321
20
9.1266918
40
0.3762034
50
56.6229818
51
78.6387103
0
ARC
8
DEFAULT_255_1_388
10
5.615315
20
9.1689846
40
0.3275964
50
47.0254604
51
56.085558
0
ARC
8
DEFAULT_255_1_388
10
5.6175401
20
9.1734189
40
0.3228382
50
10.9207523
51
46.777927
0
ARC
8
DEFAULT_255_1_388
10
5.4640995
20
9.1379401
40
0.4802559
50
359.6364235
51
11.6087615
0
ARC
8
DEFAULT_255_1_388
10
5.6705161
20
9.1362404
40
0.273833
50
332.3549969
51
359.7179765
0
ARC
8
DEFAULT_255_1_388
10
5.5973562
20
9.1709285
40
0.3547505
50
325.2332381
51
332.8746682
0
ARC
8
DEFAULT_255_1_388
10
5.6145144
20
9.1589763
40
0.3338396
50
292.9803892
51
325.2391113
0
ARC
8
DEFAULT_255_1_388
10
5.583434
20
9.2194679
40
0.4016959
50
292.542178
51
293.6931461
0
ARC
8
DEFAULT_255_1_388
10
5.6277912
20
8.4929036
40
0.372079
50
57.643292
51
72.8626085
0
ARC
8
DEFAULT_255_1_388
10
5.6676747
20
8.5575273
40
0.2961455
50
36.7246661
51
57.4701329
0
ARC
8
DEFAULT_255_1_388
10
5.6663903
20
8.558947
40
0.2963321
50
8.054535
51
36.3561529
0
ARC
8
DEFAULT_255_1_388
10
5.5693576
20
8.5415073
40
0.3948682
50
359.8316595
51
8.5873361
0
ARC
8
DEFAULT_255_1_388
10
5.527105
20
8.536097
40
0.4371398
50
343.9831631
51
0.557075
0
ARC
8
DEFAULT_255_1_388
10
5.62681
20
8.5087963
40
0.3337749
50
311.6358204
51
343.7652116
0
ARC
8
DEFAULT_255_1_388
10
5.5842353
20
8.5567955
40
0.3979351
50
279.7829743
51
311.625622
0
ARC
8
DEFAULT_255_1_388
10
5.5503489
20
8.7184642
40
0.5630417
50
269.7285092
51
280.3857694
0
ARC
8
DEFAULT_255_1_388
10
5.5433802
20
8.7138241
40
0.5584119
50
256.6827433
51
270.4412869
0
ARC
8
DEFAULT_255_1_388
10
5.5052788
20
8.5580698
40
0.3980715
50
229.4223821
51
256.8554507
0
ARC
8
DEFAULT_255_1_388
10
5.4586342
20
8.5055683
40
0.3278564
50
181.8183354
51
229.6455015
0
ARC
8
DEFAULT_255_1_388
10
5.5755951
20
8.5202825
40
0.4453611
50
179.9760419
51
183.2330638
0
ARC
8
DEFAULT_255_1_388
10
5.5562503
20
8.5179781
40
0.2579652
50
179.4467996
51
196.2871626
0
ARC
8
DEFAULT_255_1_388
10
5.5013957
20
8.5029709
40
0.2011057
50
196.5661293
51
227.7059371
0
ARC
8
DEFAULT_255_1_388
10
5.5198564
20
8.5236155
40
0.2287994
50
227.7653015
51
257.8763321
0
ARC
8
DEFAULT_255_1_388
10
5.5451647
20
8.6296961
40
0.3378385
50
257.4583525
51
270.4267406
0
ARC
8
DEFAULT_255_1_388
10
5.5502897
20
8.662323
40
0.3704652
50
269.5965319
51
280.8788143
0
ARC
8
DEFAULT_255_1_388
10
5.5761125
20
8.5333529
40
0.2389415
50
280.6347277
51
299.8594068
0
ARC
8
DEFAULT_255_1_388
10
5.5975895
20
8.4925736
40
0.19289
50
300.3575552
51
314.5515667
0
ARC
8
DEFAULT_255_1_388
10
5.588257
20
8.4994025
40
0.204312
50
315.0730962
51
345.0429362
0
ARC
8
DEFAULT_255_1_388
10
5.4844078
20
8.5296539
40
0.31246
50
344.598526
51
357.9270698
0
ARC
8
DEFAULT_255_1_388
10
5.3834383
20
8.5365705
40
0.4136265
50
357.4755098
51
0.0224936
0
ARC
8
DEFAULT_255_1_388
10
5.498726
20
8.5393099
40
0.2983498
50
359.5051035
51
13.4236939
0
ARC
8
DEFAULT_255_1_388
10
5.596235
20
8.5642637
40
0.1977186
50
12.9497905
51
48.7550905
0
ARC
8
DEFAULT_255_1_388
10
5.5757272
20
8.5362373
40
0.2323321
50
49.509109
51
72.1832965
0
ARC
8
DEFAULT_255_1_388
10
5.535474
20
8.4167632
40
0.358397
50
71.9008458
51
84.3555134
0
ARC
8
DEFAULT_255_1_388
10
5.5173135
20
8.2635712
40
0.512641
50
84.019632
51
89.3326067
0
LINE
8
DEFAULT_255_1_388
10
6.4042601
20
8.7987666
11
6.2705325
21
8.8331021
0
LINE
8
DEFAULT_255_1_388
10
6.2705325
20
8.8331021
11
6.3373963
21
9.4890898
0
LINE
8
DEFAULT_255_1_388
10
6.3373963
20
9.4890898
11
7.0114554
21
9.4890898
0
LINE
8
DEFAULT_255_1_388
10
7.0114554
20
9.4890898
11
7.0114554
21
9.3345803
0
LINE
8
DEFAULT_255_1_388
10
7.0114554
20
9.3345803
11
6.4792559
21
9.3345803
0
LINE
8
DEFAULT_255_1_388
10
6.4792559
20
9.3345803
11
6.4394991
21
8.9758652
0
LINE
8
DEFAULT_255_1_388
10
6.2235472
20
8.5195652
11
6.3816709
21
8.5195652
0
LINE
8
DEFAULT_255_1_388
10
6.4485347
20
8.8349092
11
6.4042601
21
8.7987666
0
ARC
8
DEFAULT_255_1_388
10
6.6481604
20
8.6181241
40
0.4141476
50
93.7181681
51
120.253934
0
ARC
8
DEFAULT_255_1_388
10
6.6587656
20
8.5272284
40
0.5055616
50
89.9660471
51
94.2495185
0
ARC
8
DEFAULT_255_1_388
10
6.6633478
20
8.5935154
40
0.4392953
50
73.8045384
51
90.5585736
0
ARC
8
DEFAULT_255_1_388
10
6.6897736
20
8.690052
40
0.3392225
50
41.3071072
51
73.543002
0
ARC
8
DEFAULT_255_1_388
10
6.6429556
20
8.6497461
40
0.4009977
50
13.5075837
51
41.2174839
0
ARC
8
DEFAULT_255_1_388
10
6.4582653
20
8.6013907
40
0.5918864
50
1.1330171
51
13.8830737
0
ARC
8
DEFAULT_255_1_388
10
6.2986299
20
8.5928522
40
0.7516787
50
359.9925091
51
1.5431298
0
ARC
8
DEFAULT_255_1_388
10
6.4430914
20
8.5882027
40
0.6072343
50
347.8572712
51
0.4294349
0
ARC
8
DEFAULT_255_1_388
10
6.6400049
20
8.5435898
40
0.4053482
50
323.6727442
51
348.1674594
0
ARC
8
DEFAULT_255_1_388
10
6.6731013
20
8.5234175
40
0.3667495
50
316.8171818
51
323.1486802
0
ARC
8
DEFAULT_255_1_388
10
6.6800137
20
8.5192612
40
0.358869
50
281.839603
51
316.5458142
0
ARC
8
DEFAULT_255_1_388
10
6.6377425
20
8.6942363
40
0.5388223
50
269.5770964
51
282.4214641
0
ARC
8
DEFAULT_255_1_388
10
6.6297345
20
8.670193
40
0.5147801
50
256.2425863
51
270.4486481
0
ARC
8
DEFAULT_255_1_388
10
6.5960873
20
8.5352124
40
0.3756708
50
228.9024379
51
256.33135
0
ARC
8
DEFAULT_255_1_388
10
6.5877853
20
8.5221054
40
0.360344
50
193.7536029
51
228.5272638
0
ARC
8
DEFAULT_255_1_388
10
6.7270418
20
8.5629463
40
0.5053599
50
184.9244437
51
194.4976052
0
ARC
8
DEFAULT_255_1_388
10
6.748706
20
8.5669722
40
0.3700839
50
187.3596909
51
198.6733728
0
ARC
8
DEFAULT_255_1_388
10
6.6306303
20
8.5260373
40
0.2451195
50
198.4453795
51
217.7945479
0
ARC
8
DEFAULT_255_1_388
10
6.5973476
20
8.5024563
40
0.2043754
50
218.2887146
51
228.5613203
0
ARC
8
DEFAULT_255_1_388
10
6.6083482
20
8.5172902
40
0.2227819
50
228.9652423
51
258.1237049
0
ARC
8
DEFAULT_255_1_388
10
6.631492
20
8.6163964
40
0.3245374
50
257.7260585
51
270.4013717
0
ARC
8
DEFAULT_255_1_388
10
6.6365418
20
8.5663255
40
0.2744726
50
269.4204315
51
286.420998
0
ARC
8
DEFAULT_255_1_388
10
6.6532474
20
8.5056705
40
0.2115721
50
286.7250065
51
320.6004665
0
ARC
8
DEFAULT_255_1_388
10
6.6101389
20
8.5406527
40
0.2670878
50
320.6712228
51
344.5440474
0
ARC
8
DEFAULT_255_1_388
10
6.4800103
20
8.5788394
40
0.4026927
50
344.241448
51
356.735803
0
ARC
8
DEFAULT_255_1_388
10
6.339641
20
8.5904656
40
0.5435085
50
356.3547471
51
0.0507222
0
ARC
8
DEFAULT_255_1_388
10
6.4898675
20
8.5939812
40
0.3932934
50
359.5579289
51
12.9534322
0
ARC
8
DEFAULT_255_1_388
10
6.6085515
20
8.6227586
40
0.2711827
50
12.6489751
51
41.608121
0
ARC
8
DEFAULT_255_1_388
10
6.6344675
20
8.6447946
40
0.2371737
50
41.7851122
51
85.9892156
0
ARC
8
DEFAULT_255_1_388
10
6.6205985
20
8.5532738
40
0.3295244
50
84.6965848
51
90.0672125
0
ARC
8
DEFAULT_255_1_388
10
6.6179553
20
8.4781118
40
0.4046926
50
89.6804991
51
99.161352
0
ARC
8
DEFAULT_255_1_388
10
6.5948562
20
8.6161848
40
0.2647044
50
98.9836248
51
113.8905702
0
ARC
8
DEFAULT_255_1_388
10
6.5690237
20
8.6771118
40
0.1985386
50
114.195234
51
127.3641866
0
LINE
8
DEFAULT_255_1_388
10
5.2338318
20
-1.6939618
11
5.2338318
21
-1.8304
0
LINE
8
DEFAULT_255_1_388
10
5.2338318
20
-1.8304
11
4.3718313
21
-1.8304
0
LINE
8
DEFAULT_255_1_388
10
4.3718313
20
-1.8304
11
4.3718313
21
-1.7102259
0
LINE
8
DEFAULT_255_1_388
10
4.3718313
20
-1.7102259
11
4.8272278
21
-1.2042298
0
LINE
8
DEFAULT_255_1_388
10
4.5136909
20
-0.9024393
11
4.3465315
21
-0.9024393
0
LINE
8
DEFAULT_255_1_388
10
4.9257163
20
-1.311754
11
4.5733262
21
-1.6939618
0
LINE
8
DEFAULT_255_1_388
10
4.5733262
20
-1.6939618
11
5.2338318
21
-1.6939618
0
ARC
8
DEFAULT_255_1_388
10
3.3096337
20
0.1377983
40
2.0258655
50
318.5132526
51
320.7829045
0
ARC
8
DEFAULT_255_1_388
10
3.9044294
20
-0.3463071
40
1.2589638
50
320.7372878
51
323.9739031
0
ARC
8
DEFAULT_255_1_388
10
4.3453226
20
-0.6657446
40
0.7145141
50
323.8962701
51
328.64194
0
ARC
8
DEFAULT_255_1_388
10
4.5755484
20
-0.8077455
40
0.4440242
50
328.8294576
51
331.7891185
0
ARC
8
DEFAULT_255_1_388
10
4.6877804
20
-0.8656626
40
0.3177517
50
331.4254512
51
352.9365785
0
ARC
8
DEFAULT_255_1_388
10
4.7030804
20
-0.869095
40
0.3021496
50
353.2257659
51
0.0166158
0
ARC
8
DEFAULT_255_1_388
10
4.7267564
20
-0.8665106
40
0.2784847
50
359.486299
51
15.9343185
0
ARC
8
DEFAULT_255_1_388
10
4.7837831
20
-0.8511731
40
0.2194403
50
16.1712913
51
43.5286088
0
ARC
8
DEFAULT_255_1_388
10
4.7924776
20
-0.8424809
40
0.2071504
50
43.4417391
51
83.1661095
0
ARC
8
DEFAULT_255_1_388
10
4.7773937
20
-0.9253684
40
0.2912888
50
82.160179
51
90.1505708
0
ARC
8
DEFAULT_255_1_388
10
4.7738418
20
-0.9857721
40
0.3517025
50
89.5460741
51
102.5418361
0
ARC
8
DEFAULT_255_1_388
10
4.7465138
20
-0.8698067
40
0.2325748
50
102.1738499
51
129.206123
0
ARC
8
DEFAULT_255_1_388
10
4.7376592
20
-0.8558336
40
0.2161591
50
129.72865
51
135.753947
0
ARC
8
DEFAULT_255_1_388
10
4.7513074
20
-0.8667272
40
0.2335433
50
136.1757367
51
166.3673339
0
ARC
8
DEFAULT_255_1_388
10
4.8645762
20
-0.8970852
40
0.3507873
50
165.9090694
51
178.8684636
0
ARC
8
DEFAULT_255_1_388
10
4.9621534
20
-0.9023737
40
0.4484624
50
178.4391136
51
180.0083808
0
ARC
8
DEFAULT_255_1_388
10
4.8042235
20
-0.8979803
40
0.4577138
50
163.2878482
51
180.5581842
0
ARC
8
DEFAULT_255_1_388
10
4.7140276
20
-0.8731607
40
0.3641968
50
133.4540601
51
162.947111
0
ARC
8
DEFAULT_255_1_388
10
4.7341158
20
-0.8945211
40
0.3935189
50
100.7869829
51
133.4382499
0
ARC
8
DEFAULT_255_1_388
10
4.7732403
20
-1.0687601
40
0.5720313
50
89.660664
51
101.3702276
0
ARC
8
DEFAULT_255_1_388
10
4.7807012
20
-1.0618737
40
0.5651495
50
78.2172678
51
90.412935
0
ARC
8
DEFAULT_255_1_388
10
4.8206478
20
-0.8791489
40
0.378122
50
55.9269121
51
78.4888449
0
ARC
8
DEFAULT_255_1_388
10
4.8427193
20
-0.8410813
40
0.3342379
50
47.929771
51
55.4049217
0
ARC
8
DEFAULT_255_1_388
10
4.8541723
20
-0.8294382
40
0.3179217
50
4.334829
51
48.0560205
0
ARC
8
DEFAULT_255_1_388
10
4.7309525
20
-0.8485513
40
0.442341
50
359.9251713
51
5.5971671
0
ARC
8
DEFAULT_255_1_388
10
4.779168
20
-0.8422272
40
0.3941854
50
337.8914027
51
358.9967534
0
ARC
8
DEFAULT_255_1_388
10
4.473925
20
-0.7244705
40
0.7213271
50
326.9132501
51
338.3508308
0
ARC
8
DEFAULT_255_1_388
10
4.0255362
20
-0.4370895
40
1.2538973
50
319.6471833
51
327.0959558
0
ARC
8
DEFAULT_255_1_388
10
3.594202
20
-0.081295
40
1.8129975
50
317.2588228
51
319.9045804
0
LINE
8
DEFAULT_255_1_388
10
6.1166143
20
-0.5148102
11
6.1166143
21
-1.388557
0
LINE
8
DEFAULT_255_1_388
10
6.1166143
20
-1.388557
11
6.2991343
21
-1.388557
0
LINE
8
DEFAULT_255_1_388
10
6.2991343
20
-1.388557
11
6.2991343
21
-1.5249952
0
LINE
8
DEFAULT_255_1_388
10
6.2991343
20
-1.5249952
11
6.1166143
21
-1.5249952
0
LINE
8
DEFAULT_255_1_388
10
6.1166143
20
-1.5249952
11
6.1166143
21
-1.8304
0
LINE
8
DEFAULT_255_1_388
10
6.1166143
20
-1.8304
11
5.9485513
21
-1.8304
0
LINE
8
DEFAULT_255_1_388
10
5.9485513
20
-1.8304
11
5.9485513
21
-1.5249952
0
LINE
8
DEFAULT_255_1_388
10
5.9485513
20
-1.5249952
11
5.349488
21
-1.5249952
0
LINE
8
DEFAULT_255_1_388
10
5.349488
20
-1.5249952
11
5.349488
21
-1.4265067
0
LINE
8
DEFAULT_255_1_388
10
5.349488
20
-1.4265067
11
5.9386121
21
-0.5148102
0
LINE
8
DEFAULT_255_1_388
10
5.9386121
20
-0.5148102
11
6.1166143
21
-0.5148102
0
LINE
8
DEFAULT_255_1_388
10
5.9286729
20
-0.7795545
11
5.5392366
21
-1.388557
0
LINE
8
DEFAULT_255_1_388
10
5.5392366
20
-1.388557
11
5.9485513
21
-1.388557
0
LINE
8
DEFAULT_255_1_388
10
5.9485513
20
-1.388557
11
5.9485513
21
-0.743412
0
LINE
8
DEFAULT_255_1_388
10
5.9485513
20
-0.743412
11
5.9286729
21
-0.7795545
0
LINE
8
DEFAULT_255_1_388
10
7.0761997
20
-0.5139066
11
7.1060173
21
-0.5139066
0
LINE
8
DEFAULT_255_1_388
10
7.1060173
20
-0.5139066
11
7.1060173
21
-0.6557662
0
LINE
8
DEFAULT_255_1_388
10
7.1060173
20
-0.6557662
11
7.0752961
21
-0.6557662
0
LINE
8
DEFAULT_255_1_388
10
6.4599688
20
-1.3298253
11
6.4599688
21
-1.2656722
0
LINE
8
DEFAULT_255_1_388
10
6.6280317
20
-1.2873578
11
6.6280317
21
-1.3488001
0
ARC
8
DEFAULT_255_1_388
10
7.0811853
20
-1.2180174
40
0.562282
50
90.6001079
51
104.5146616
0
ARC
8
DEFAULT_255_1_388
10
7.0374812
20
-1.05549
40
0.3939917
50
104.2855758
51
133.8630124
0
ARC
8
DEFAULT_255_1_388
10
7.0559065
20
-1.0676757
40
0.4155734
50
134.5304124
51
161.6210222
0
ARC
8
DEFAULT_255_1_388
10
7.2418997
20
-1.1332579
40
0.6127682
50
161.2850533
51
174.2074364
0
ARC
8
DEFAULT_255_1_388
10
7.4008564
20
-1.1551563
40
0.7731446
50
173.7817938
51
174.9251711
0
ARC
8
DEFAULT_255_1_388
10
6.8882758
20
-1.310673
40
0.3412588
50
95.8332067
51
138.995412
0
ARC
8
DEFAULT_255_1_388
10
6.9134038
20
-1.4545305
40
0.4870358
50
89.8755506
51
97.0540979
0
ARC
8
DEFAULT_255_1_388
10
6.9187427
20
-1.3605159
40
0.3930432
50
71.6407016
51
90.6240821
0
ARC
8
DEFAULT_255_1_388
10
6.9356821
20
-1.2981567
40
0.3285421
50
39.6368051
51
71.0190743
0
ARC
8
DEFAULT_255_1_388
10
6.8640728
20
-1.3600414
40
0.4231706
50
10.6588054
51
39.9044509
0
ARC
8
DEFAULT_255_1_388
10
6.6899274
20
-1.3978777
40
0.60133
50
359.6827842
51
11.1326896
0
ARC
8
DEFAULT_255_1_388
10
6.685461
20
-1.4058285
40
0.6058047
50
347.2485908
51
0.4371098
0
ARC
8
DEFAULT_255_1_388
10
6.8730395
20
-1.4509621
40
0.4128987
50
318.1408565
51
347.6118497
0
ARC
8
DEFAULT_255_1_388
10
6.9095992
20
-1.4810097
40
0.3656244
50
275.6342406
51
317.824739
0
ARC
8
DEFAULT_255_1_388
10
6.8847513
20
-1.3348173
40
0.513655
50
269.8872513
51
276.7916069
0
ARC
8
DEFAULT_255_1_388
10
6.8785705
20
-1.4501819
40
0.398323
50
246.9139443
51
270.7436787
0
ARC
8
DEFAULT_255_1_388
10
6.8792901
20
-1.4661956
40
0.3839368
50
218.1665534
51
245.8780431
0
ARC
8
DEFAULT_255_1_388
10
6.9782273
20
-1.3834097
40
0.5128958
50
191.4115343
51
218.6077624
0
ARC
8
DEFAULT_255_1_388
10
7.196259
20
-1.3345223
40
0.7363054
50
179.6344971
51
191.7836758
0
ARC
8
DEFAULT_255_1_388
10
7.8242464
20
-1.2581505
40
1.3642984
50
171.4523743
51
180.3158856
0
ARC
8
DEFAULT_255_1_388
10
7.3298191
20
-1.1812105
40
0.8639311
50
157.9802296
51
171.6246761
0
ARC
8
DEFAULT_255_1_388
10
7.0807542
20
-1.0818962
40
0.5958004
50
141.4299236
51
157.8541251
0
ARC
8
DEFAULT_255_1_388
10
7.0085625
20
-1.0308254
40
0.5075416
50
102.871586
51
140.8564533
0
ARC
8
DEFAULT_255_1_388
10
7.0814178
20
-1.3053057
40
0.7914163
50
90.377773
51
103.5868422
0
ARC
8
DEFAULT_255_1_388
10
6.8858699
20
-1.3733457
40
0.2667015
50
89.8751238
51
126.2072139
0
ARC
8
DEFAULT_255_1_388
10
6.891017
20
-1.3907153
40
0.2838229
50
124.9742447
51
144.8960197
0
ARC
8
DEFAULT_255_1_388
10
6.8712415
20
-1.3746019
40
0.2583845
50
145.2974778
51
160.2660922
0
ARC
8
DEFAULT_255_1_388
10
7.2168903
20
-1.3523849
40
0.5888695
50
179.6512124
51
190.285571
0
ARC
8
DEFAULT_255_1_388
10
7.0263383
20
-1.3883032
40
0.3949683
50
190.0944895
51
207.5099647
0
ARC
8
DEFAULT_255_1_388
10
6.9626965
20
-1.4185823
40
0.3245464
50
207.9585471
51
216.325377
0
ARC
8
DEFAULT_255_1_388
10
6.9244602
20
-1.4500288
40
0.2751259
50
215.7661336
51
232.5457193
0
ARC
8
DEFAULT_255_1_388
10
6.8813718
20
-1.5047727
40
0.2054668
50
232.8005815
51
270.6605497
0
ARC
8
DEFAULT_255_1_388
10
6.8865142
20
-1.4638147
40
0.2464268
50
269.3550767
51
288.474612
0
ARC
8
DEFAULT_255_1_388
10
6.8969649
20
-1.5031279
40
0.2058436
50
289.1831976
51
322.9685307
0
ARC
8
DEFAULT_255_1_388
10
6.8281751
20
-1.4488721
40
0.2934408
50
322.6007085
51
346.5183319
0
ARC
8
DEFAULT_255_1_388
10
6.6979507
20
-1.4156566
40
0.4278249
50
346.2584622
51
358.7739592
0
ARC
8
DEFAULT_255_1_388
10
6.5828082
20
-1.4094171
40
0.5430876
50
358.3757628
51
0.0082477
0
ARC
8
DEFAULT_255_1_388
10
6.66849
20
-1.4063144
40
0.4574157
50
359.6211417
51
11.28403
0
ARC
8
DEFAULT_255_1_388
10
6.8121507
20
-1.3763465
40
0.3106708
50
11.0483152
51
31.8145585
0
ARC
8
DEFAULT_255_1_388
10
6.8469212
20
-1.3574955
40
0.2711963
50
32.3028554
51
38.0820598
0
ARC
8
DEFAULT_255_1_388
10
6.8942445
20
-1.3146283
40
0.2075566
50
36.8249851
51
85.741667
0
ARC
8
DEFAULT_255_1_388
10
6.8866857
20
-1.3709935
40
0.2643487
50
85.0150021
51
90.050843
0
ENDSEC
0
EOF