0
SECTION
2
HEADER
9
$MEASUREMENT
70
1
0
ENDSEC
0
SECTION
2
TABLES
0
TABLE
2
LTYPE
0
LTYPE
72
65
70
64
2
CONTINUOUS
3
______
73
0
40
0
0
ENDTAB
0
TABLE
2
LAYER
0
LAYER
2
DEFAULT_255_2_778_3
70
0
62
255
6
CONTINUOUS
0
LAYER
2
DEFAULT_255_2_778
70
0
62
255
6
CONTINUOUS
0
LAYER
2
DEFAULT_255_1_234
70
0
62
255
6
CONTINUOUS
0
ENDTAB
0
ENDSEC
0
SECTION
2
ENTITIES
0
LINE
8
DEFAULT_255_2_778_3
10
18.0574835
20
3.8365
11
5.8866835
21
3.8365
0
LINE
8
DEFAULT_255_2_778
10
6.8897604
20
4.9431906
11
8.1676604
21
5.2855906
0
LINE
8
DEFAULT_255_2_778
10
8.1676604
20
5.2855906
11
8.8524604
21
2.7299906
0
LINE
8
DEFAULT_255_2_778
10
8.8524604
20
2.7299906
11
7.5744604
21
2.3875906
0
LINE
8
DEFAULT_255_2_778
10
7.5744604
20
2.3875906
11
6.8897604
21
4.9431906
0
LINE
8
DEFAULT_255_2_778
10
8.5324834
20
10.4510831
11
8.5324834
21
6.4823831
0
LINE
8
DEFAULT_255_2_778
10
7.2095834
20
6.4823831
11
8.5324834
21
1.1906831
0
LINE
8
DEFAULT_255_2_778
10
8.5324834
20
1.1906831
11
8.5324834
21
-2.7781169
0
LINE
8
DEFAULT_255_2_778
10
5.8866834
20
4.4979831
11
5.8866834
21
3.1750831
0
LINE
8
DEFAULT_255_2_778
10
12.1814604
20
4.9431906
11
13.4593604
21
5.2855906
0
LINE
8
DEFAULT_255_2_778
10
13.4593604
20
5.2855906
11
14.1441604
21
2.7299906
0
LINE
8
DEFAULT_255_2_778
10
14.1441604
20
2.7299906
11
12.8661604
21
2.3875906
0
LINE
8
DEFAULT_255_2_778
10
12.8661604
20
2.3875906
11
12.1814604
21
4.9431906
0
LINE
8
DEFAULT_255_2_778
10
13.8242417
20
10.4510831
11
13.8242417
21
6.4823831
0
LINE
8
DEFAULT_255_2_778
10
12.5013417
20
6.4823831
11
13.8242417
21
1.1906831
0
LINE
8
DEFAULT_255_2_778
10
13.8242417
20
1.1906831
11
13.8242417
21
-2.7781169
0
LINE
8
DEFAULT_255_2_778
10
17.4730604
20
4.9431906
11
18.7509604
21
5.2855906
0
LINE
8
DEFAULT_255_2_778
10
18.7509604
20
5.2855906
11
19.4357604
21
2.7299906
0
LINE
8
DEFAULT_255_2_778
10
19.4357604
20
2.7299906
11
18.1577604
21
2.3875906
0
LINE
8
DEFAULT_255_2_778
10
18.1577604
20
2.3875906
11
17.4730604
21
4.9431906
0
LINE
8
DEFAULT_255_2_778
10
19.1159043
20
10.4510831
11
19.1159043
21
6.4823831
0
LINE
8
DEFAULT_255_2_778
10
17.7930043
20
6.4823831
11
19.1159043
21
1.1906831
0
LINE
8
DEFAULT_255_2_778
10
19.1159043
20
1.1906831
11
19.1159043
21
-2.7781169
0
LINE
8
DEFAULT_255_2_778
10
7.8711043
20
6.4823831
11
9.1940043
21
6.4823831
0
LINE
8
DEFAULT_255_2_778
10
13.1628043
20
6.4823831
11
14.4857043
21
6.4823831
0
LINE
8
DEFAULT_255_2_778
10
18.4544417
20
6.4823
11
19.7773417
21
6.4823
0
LINE
8
DEFAULT_255_1_234
10
6.1540137
20
9.3370433
11
6.1540137
21
8.162
0
LINE
8
DEFAULT_255_1_234
10
6.1540137
20
8.162
11
6.0046234
21
8.162
0
LINE
8
DEFAULT_255_1_234
10
6.0046234
20
8.162
11
6.0046234
21
9.1523133
0
LINE
8
DEFAULT_255_1_234
10
6.0046234
20
9.1523133
11
5.7050396
21
9.0422785
0
LINE
8
DEFAULT_255_1_234
10
5.7050396
20
9.0422785
11
5.7050396
21
9.1772117
0
LINE
8
DEFAULT_255_1_234
10
5.7050396
20
9.1772117
11
6.1307217
21
9.3370433
0
LINE
8
DEFAULT_255_1_234
10
6.1307217
20
9.3370433
11
6.1540137
21
9.3370433
0
LINE
8
DEFAULT_255_1_234
10
6.8053877
20
8.6977169
11
6.8053877
21
8.8189962
0
LINE
8
DEFAULT_255_1_234
10
6.8053877
20
8.8189962
11
6.9170289
21
8.8189962
0
LINE
8
DEFAULT_255_1_234
10
6.7266767
20
9.0246087
11
6.5780895
21
9.0246087
0
LINE
8
DEFAULT_255_1_234
10
6.5676482
20
8.4704188
11
6.7170386
21
8.4704188
0
LINE
8
DEFAULT_255_1_234
10
6.9170289
20
8.6977169
11
6.8053877
21
8.6977169
0
ARC
8
DEFAULT_255_1_234
10
6.9141155
20
9.1582713
40
0.3392876
50
270.4919872
51
281.8951556
0
ARC
8
DEFAULT_255_1_234
10
6.9382417
20
9.0480702
40
0.2264817
50
281.6691735
51
301.2943132
0
ARC
8
DEFAULT_255_1_234
10
6.9552627
20
9.0169304
40
0.1910381
50
301.7833094
51
311.7545298
0
ARC
8
DEFAULT_255_1_234
10
6.9644203
20
9.0067748
40
0.1773635
50
311.7323931
51
354.2802411
0
ARC
8
DEFAULT_255_1_234
10
6.8917828
20
9.0192722
40
0.2509385
50
353.0937916
51
0.1181479
0
ARC
8
DEFAULT_255_1_234
10
6.8456613
20
9.0240386
40
0.2970898
50
359.1805295
51
15.0453146
0
ARC
8
DEFAULT_255_1_234
10
6.980245
20
9.0632992
40
0.1569564
50
13.9577229
51
77.6713066
0
ARC
8
DEFAULT_255_1_234
10
6.9415979
20
8.9247949
40
0.3006298
50
76.1116566
51
90.7026153
0
ARC
8
DEFAULT_255_1_234
10
6.9356817
20
8.9521545
40
0.2732568
50
89.5324876
51
103.531937
0
ARC
8
DEFAULT_255_1_234
10
6.9156261
20
9.0320884
40
0.1908508
50
103.2931773
51
133.5619022
0
ARC
8
DEFAULT_255_1_234
10
6.911175
20
9.0380375
40
0.1834746
50
133.8349307
51
173.5344437
0
ARC
8
DEFAULT_255_1_234
10
6.9834793
20
9.0252213
40
0.2568033
50
172.5096846
51
180.1366907
0
ARC
8
DEFAULT_255_1_234
10
6.8883687
20
9.0286622
40
0.3103056
50
155.3484492
51
180.7484736
0
ARC
8
DEFAULT_255_1_234
10
6.8834776
20
9.0257846
40
0.3070957
50
131.5744599
51
154.4798489
0
ARC
8
DEFAULT_255_1_234
10
6.9147923
20
8.994131
40
0.3515643
50
96.9875458
51
131.9690667
0
ARC
8
DEFAULT_255_1_234
10
6.9367403
20
8.8695636
40
0.4779224
50
89.8596053
51
97.7825159
0
ARC
8
DEFAULT_255_1_234
10
6.9415466
20
8.8433616
40
0.5041361
50
78.3655447
51
90.4131539
0
ARC
8
DEFAULT_255_1_234
10
6.9773384
20
9.0092887
40
0.3344039
50
56.6229102
51
78.638727
0
ARC
8
DEFAULT_255_1_234
10
6.9988328
20
9.0468805
40
0.2912001
50
47.0253525
51
56.0854072
0
ARC
8
DEFAULT_255_1_234
10
7.0008108
20
9.0508223
40
0.2869704
50
10.9208013
51
46.7778124
0
ARC
8
DEFAULT_255_1_234
10
6.8644174
20
9.0192857
40
0.426899
50
359.6364486
51
11.6087304
0
ARC
8
DEFAULT_255_1_234
10
7.0479018
20
9.0177752
40
0.243409
50
332.3549906
51
359.7179418
0
ARC
8
DEFAULT_255_1_234
10
6.982862
20
9.0486142
40
0.3153459
50
325.2333722
51
332.8745602
0
ARC
8
DEFAULT_255_1_234
10
6.9981244
20
9.0379828
40
0.2967456
50
292.9802137
51
325.2392345
0
ARC
8
DEFAULT_255_1_234
10
6.9706617
20
9.0913863
40
0.3566604
50
292.5402179
51
293.6924929
0
ARC
8
DEFAULT_255_1_234
10
7.0099213
20
8.4459091
40
0.3307468
50
57.6435486
51
72.8625112
0
ARC
8
DEFAULT_255_1_234
10
7.0453713
20
8.5033549
40
0.2632492
50
36.7248896
51
57.4697979
0
ARC
8
DEFAULT_255_1_234
10
7.0442346
20
8.504622
40
0.2634081
50
8.0545065
51
36.356114
0
ARC
8
DEFAULT_255_1_234
10
6.9579531
20
8.4891174
40
0.3510261
50
359.8320645
51
8.5869982
0
ARC
8
DEFAULT_255_1_234
10
6.9204307
20
8.4843101
40
0.3885653
50
343.9829931
51
0.5571613
0
ARC
8
DEFAULT_255_1_234
10
7.0090504
20
8.4600438
40
0.2966924
50
311.6359546
51
343.7651759
0
ARC
8
DEFAULT_255_1_234
10
6.9712074
20
8.5027102
40
0.3537231
50
279.7829875
51
311.6255694
0
ARC
8
DEFAULT_255_1_234
10
6.941085
20
8.646428
40
0.5004971
50
269.7286406
51
280.3856417
0
ARC
8
DEFAULT_255_1_234
10
6.9348922
20
8.6422996
40
0.4963778
50
256.6828919
51
270.4412052
0
ARC
8
DEFAULT_255_1_234
10
6.9010218
20
8.5038394
40
0.3538406
50
229.4223008
51
256.8556159
0
ARC
8
DEFAULT_255_1_234
10
6.8595611
20
8.4571736
40
0.2914296
50
181.818294
51
229.6455059
0
ARC
8
DEFAULT_255_1_234
10
6.9635567
20
8.4702496
40
0.3959084
50
179.9755256
51
183.2323064
0
ARC
8
DEFAULT_255_1_234
10
6.9463313
20
8.4682037
40
0.2293034
50
179.4465117
51
196.2869258
0
ARC
8
DEFAULT_255_1_234
10
6.8975721
20
8.4548651
40
0.1787621
50
196.5661473
51
227.705904
0
ARC
8
DEFAULT_255_1_234
10
6.9139816
20
8.4732155
40
0.2033784
50
227.7652068
51
257.8762805
0
ARC
8
DEFAULT_255_1_234
10
6.9364786
20
8.5675156
40
0.3003081
50
257.4584385
51
270.426602
0
ARC
8
DEFAULT_255_1_234
10
6.9410352
20
8.5964996
40
0.329292
50
269.5962073
51
280.8789248
0
ARC
8
DEFAULT_255_1_234
10
6.9639881
20
8.4818685
40
0.2123908
50
280.6346389
51
299.8595945
0
ARC
8
DEFAULT_255_1_234
10
6.9830788
20
8.4456212
40
0.171457
50
300.3576302
51
314.5517981
0
ARC
8
DEFAULT_255_1_234
10
6.9747848
20
8.4516919
40
0.1816095
50
315.0728369
51
345.0431014
0
ARC
8
DEFAULT_255_1_234
10
6.8824662
20
8.4785841
40
0.2777492
50
344.5986631
51
357.9269593
0
ARC
8
DEFAULT_255_1_234
10
6.7928989
20
8.4847276
40
0.3674917
50
357.4748886
51
0.0231117
0
ARC
8
DEFAULT_255_1_234
10
6.8952098
20
8.4871679
40
0.2651907
50
359.5047933
51
13.4239635
0
ARC
8
DEFAULT_255_1_234
10
6.9818741
20
8.5093478
40
0.1757509
50
12.9498199
51
48.7551375
0
ARC
8
DEFAULT_255_1_234
10
6.9636475
20
8.48444
40
0.2065134
50
49.5088623
51
72.1836453
0
ARC
8
DEFAULT_255_1_234
10
6.9278628
20
8.3782291
40
0.3185836
50
71.9010081
51
84.3554254
0
ARC
8
DEFAULT_255_1_234
10
6.911726
20
8.2421326
40
0.4556151
50
84.0193428
51
89.333121
0
LINE
8
DEFAULT_255_1_234
10
7.7001233
20
8.7177963
11
7.5812536
21
8.7483169
0
LINE
8
DEFAULT_255_1_234
10
7.5812536
20
8.7483169
11
7.6406885
21
9.3314211
0
LINE
8
DEFAULT_255_1_234
10
7.6406885
20
9.3314211
11
8.2398562
21
9.3314211
0
LINE
8
DEFAULT_255_1_234
10
8.2398562
20
9.3314211
11
8.2398562
21
9.1940784
0
LINE
8
DEFAULT_255_1_234
10
8.2398562
20
9.1940784
11
7.7667868
21
9.1940784
0
LINE
8
DEFAULT_255_1_234
10
7.7667868
20
9.1940784
11
7.7314471
21
8.8752184
0
LINE
8
DEFAULT_255_1_234
10
7.5394886
20
8.4696156
11
7.680044
21
8.4696156
0
LINE
8
DEFAULT_255_1_234
10
7.7394789
20
8.7499232
11
7.7001233
21
8.7177963
0
ARC
8
DEFAULT_255_1_234
10
7.9169255
20
8.557223
40
0.3681349
50
93.7182161
51
120.2538958
0
ARC
8
DEFAULT_255_1_234
10
7.9263518
20
8.4764394
40
0.449379
50
89.9660152
51
94.2496022
0
ARC
8
DEFAULT_255_1_234
10
7.9304252
20
8.5353549
40
0.390482
50
73.8043271
51
90.5585896
0
ARC
8
DEFAULT_255_1_234
10
7.9539149
20
8.6211602
40
0.3015334
50
41.3071453
51
73.5430202
0
ARC
8
DEFAULT_255_1_234
10
7.9122976
20
8.5853324
40
0.3564457
50
13.5075983
51
41.2174222
0
ARC
8
DEFAULT_255_1_234
10
7.748118
20
8.5423486
40
0.5261351
50
1.1331335
51
13.8829381
0
ARC
8
DEFAULT_255_1_234
10
7.6069549
20
8.5347665
40
0.6674378
50
359.9919444
51
1.544251
0
ARC
8
DEFAULT_255_1_234
10
7.7346375
20
8.530628
40
0.5397702
50
347.8572367
51
0.4293338
0
ARC
8
DEFAULT_255_1_234
10
7.9096693
20
8.4909736
40
0.3603188
50
323.673004
51
348.1672506
0
ARC
8
DEFAULT_255_1_234
10
7.9391201
20
8.4730168
40
0.3259678
50
316.8171152
51
323.1492751
0
ARC
8
DEFAULT_255_1_234
10
7.945239
20
8.469346
40
0.3189975
50
281.8396411
51
316.5457803
0
ARC
8
DEFAULT_255_1_234
10
7.9076654
20
8.6248762
40
0.4789527
50
269.5770101
51
282.4214771
0
ARC
8
DEFAULT_255_1_234
10
7.9005465
20
8.6035125
40
0.45759
50
256.2427136
51
270.4486331
0
ARC
8
DEFAULT_255_1_234
10
7.8706368
20
8.4835229
40
0.3339303
50
228.9023911
51
256.3314342
0
ARC
8
DEFAULT_255_1_234
10
7.86326
20
8.4718746
40
0.32031
50
193.753695
51
228.5271154
0
ARC
8
DEFAULT_255_1_234
10
7.9870554
20
8.50818
40
0.4492253
50
184.924711
51
194.497588
0
ARC
8
DEFAULT_255_1_234
10
8.0063121
20
8.5117591
40
0.3289787
50
187.3600538
51
198.6732863
0
ARC
8
DEFAULT_255_1_234
10
7.9013415
20
8.4753674
40
0.217884
50
198.4451669
51
217.794479
0
ARC
8
DEFAULT_255_1_234
10
7.871759
20
8.4544085
40
0.1816698
50
218.2887171
51
228.5612368
0
ARC
8
DEFAULT_255_1_234
10
7.8815377
20
8.4675963
40
0.1980329
50
228.9654866
51
258.1234728
0
ARC
8
DEFAULT_255_1_234
10
7.9021087
20
8.5556833
40
0.2884748
50
257.7258293
51
270.401361
0
ARC
8
DEFAULT_255_1_234
10
7.9065974
20
8.5111821
40
0.2439788
50
269.4204404
51
286.4209037
0
ARC
8
DEFAULT_255_1_234
10
7.9214461
20
8.4572657
40
0.1880666
50
286.7251356
51
320.600362
0
ARC
8
DEFAULT_255_1_234
10
7.8831286
20
8.4883595
40
0.2374121
50
320.6712579
51
344.5441685
0
ARC
8
DEFAULT_255_1_234
10
7.7674612
20
8.5223045
40
0.3579479
50
344.2412205
51
356.7357071
0
ARC
8
DEFAULT_255_1_234
10
7.6425761
20
8.5326444
40
0.4832297
50
356.3548756
51
0.0500261
0
ARC
8
DEFAULT_255_1_234
10
7.776227
20
8.535765
40
0.3495889
50
359.5576869
51
12.953486
0
ARC
8
DEFAULT_255_1_234
10
7.8817167
20
8.5613434
40
0.2410532
50
12.6490276
51
41.6081334
0
ARC
8
DEFAULT_255_1_234
10
7.9047538
20
8.5809321
40
0.2108218
50
41.7850273
51
85.9892764
0
ARC
8
DEFAULT_255_1_234
10
7.8924275
20
8.4996462
40
0.2928454
50
84.6957577
51
90.0676183
0
ARC
8
DEFAULT_255_1_234
10
7.8900759
20
8.4327716
40
0.3597255
50
89.6804936
51
99.1614436
0
ARC
8
DEFAULT_255_1_234
10
7.869539
20
8.5555131
40
0.235281
50
98.9830931
51
113.8908934
0
ARC
8
DEFAULT_255_1_234
10
7.84658
20
8.6096587
40
0.176479
50
114.1950727
51
127.3641004
0
LINE
8
DEFAULT_255_1_234
10
6.6353119
20
-1.7206208
11
6.6353119
21
-1.8419
0
LINE
8
DEFAULT_255_1_234
10
6.6353119
20
-1.8419
11
5.869084
21
-1.8419
0
LINE
8
DEFAULT_255_1_234
10
5.869084
20
-1.8419
11
5.869084
21
-1.7350779
0
LINE
8
DEFAULT_255_1_234
10
5.869084
20
-1.7350779
11
6.2738836
21
-1.2853005
0
LINE
8
DEFAULT_255_1_234
10
5.9951823
20
-1.0170405
11
5.8465952
21
-1.0170405
0
LINE
8
DEFAULT_255_1_234
10
6.3614296
20
-1.3808782
11
6.0481918
21
-1.7206208
0
LINE
8
DEFAULT_255_1_234
10
6.0481918
20
-1.7206208
11
6.6353119
21
-1.7206208
0
ARC
8
DEFAULT_255_1_234
10
4.924867
20
-0.0923473
40
1.8008286
50
318.5132453
51
320.7828378
0
ARC
8
DEFAULT_255_1_234
10
5.4535644
20
-0.5226574
40
1.1191493
50
320.7372736
51
323.9737074
0
ARC
8
DEFAULT_255_1_234
10
5.8455501
20
-0.8066639
40
0.6350923
50
323.8961724
51
328.6421089
0
ARC
8
DEFAULT_255_1_234
10
6.0502096
20
-0.9328969
40
0.3946393
50
328.8299013
51
331.789948
0
ARC
8
DEFAULT_255_1_234
10
6.1499274
20
-0.9843491
40
0.2824501
50
331.4255242
51
352.9364833
0
ARC
8
DEFAULT_255_1_234
10
6.1635775
20
-0.9874024
40
0.2685315
50
353.2248685
51
0.0169286
0
ARC
8
DEFAULT_255_1_234
10
6.1845652
20
-0.985105
40
0.2475536
50
359.4866256
51
15.9339782
0
ARC
8
DEFAULT_255_1_234
10
6.2352637
20
-0.9714714
40
0.1950618
50
16.1714718
51
43.5284424
0
ARC
8
DEFAULT_255_1_234
10
6.2429946
20
-0.9637427
40
0.184134
50
43.4415429
51
83.1661404
0
ARC
8
DEFAULT_255_1_234
10
6.2295864
20
-1.0374229
40
0.258926
50
82.160215
51
90.1505798
0
ARC
8
DEFAULT_255_1_234
10
6.2264291
20
-1.0911135
40
0.3126255
50
89.5460705
51
102.5418777
0
ARC
8
DEFAULT_255_1_234
10
6.2021377
20
-0.9880335
40
0.2067346
50
102.1739365
51
129.2061916
0
ARC
8
DEFAULT_255_1_234
10
6.1942449
20
-0.9755906
40
0.1921118
50
129.7279328
51
135.7542026
0
ARC
8
DEFAULT_255_1_234
10
6.2063977
20
-0.9852955
40
0.2075944
50
136.175737
51
166.3674722
0
ARC
8
DEFAULT_255_1_234
10
6.3070896
20
-1.0122818
40
0.3118201
50
165.9092917
51
178.8683903
0
ARC
8
DEFAULT_255_1_234
10
6.3935757
20
-1.0169821
40
0.3983935
50
178.438168
51
180.0083905
0
ARC
8
DEFAULT_255_1_234
10
6.2534359
20
-1.0130769
40
0.4068601
50
163.2878735
51
180.5581814
0
ARC
8
DEFAULT_255_1_234
10
6.1732621
20
-0.991016
40
0.3237344
50
133.454115
51
162.9470031
0
ARC
8
DEFAULT_255_1_234
10
6.1911162
20
-1.01
40
0.349795
50
100.7869394
51
133.4384016
0
ARC
8
DEFAULT_255_1_234
10
6.2258934
20
-1.1648681
40
0.5084616
50
89.6605301
51
101.3704185
0
ARC
8
DEFAULT_255_1_234
10
6.2325273
20
-1.1587504
40
0.502348
50
78.2171172
51
90.4130393
0
ARC
8
DEFAULT_255_1_234
10
6.2680351
20
-0.9963363
40
0.3361092
50
55.9268222
51
78.4888551
0
ARC
8
DEFAULT_255_1_234
10
6.2876791
20
-0.9624676
40
0.2970617
50
47.9292255
51
55.4054003
0
ARC
8
DEFAULT_255_1_234
10
6.2978352
20
-0.9521498
40
0.2825983
50
4.3347696
51
48.0560701
0
ARC
8
DEFAULT_255_1_234
10
6.1882745
20
-0.9691399
40
0.393225
50
359.925209
51
5.5967654
0
ARC
8
DEFAULT_255_1_234
10
6.2311637
20
-0.9635184
40
0.3503892
50
337.8914096
51
358.9967724
0
ARC
8
DEFAULT_255_1_234
10
5.9598049
20
-0.8588294
40
0.6412172
50
326.9135351
51
338.3505194
0
ARC
8
DEFAULT_255_1_234
10
5.5612353
20
-0.6033716
40
1.1146189
50
319.6472867
51
327.095818
0
ARC
8
DEFAULT_255_1_234
10
5.1779356
20
-0.2872
40
1.6114559
50
317.2586784
51
319.9046139
0
LINE
8
DEFAULT_255_1_234
10
7.4200127
20
-0.6724789
11
7.4200127
21
-1.449148
0
LINE
8
DEFAULT_255_1_234
10
7.4200127
20
-1.449148
11
7.5822538
21
-1.449148
0
LINE
8
DEFAULT_255_1_234
10
7.5822538
20
-1.449148
11
7.5822538
21
-1.5704272
0
LINE
8
DEFAULT_255_1_234
10
7.5822538
20
-1.5704272
11
7.4200127
21
-1.5704272
0
LINE
8
DEFAULT_255_1_234
10
7.4200127
20
-1.5704272
11
7.4200127
21
-1.8419
0
LINE
8
DEFAULT_255_1_234
10
7.4200127
20
-1.8419
11
7.2706224
21
-1.8419
0
LINE
8
DEFAULT_255_1_234
10
7.2706224
20
-1.8419
11
7.2706224
21
-1.5704272
0
LINE
8
DEFAULT_255_1_234
10
7.2706224
20
-1.5704272
11
6.7381181
21
-1.5704272
0
LINE
8
DEFAULT_255_1_234
10
6.7381181
20
-1.5704272
11
6.7381181
21
-1.4828813
0
LINE
8
DEFAULT_255_1_234
10
6.7381181
20
-1.4828813
11
7.2617875
21
-0.6724789
0
LINE
8
DEFAULT_255_1_234
10
7.2617875
20
-0.6724789
11
7.4200127
21
-0.6724789
0
LINE
8
DEFAULT_255_1_234
10
7.2529525
20
-0.9078088
11
6.9067846
21
-1.449148
0
LINE
8
DEFAULT_255_1_234
10
6.9067846
20
-1.449148
11
7.2706224
21
-1.449148
0
LINE
8
DEFAULT_255_1_234
10
7.2706224
20
-1.449148
11
7.2706224
21
-0.8756819
0
LINE
8
DEFAULT_255_1_234
10
7.2706224
20
-0.8756819
11
7.2529525
21
-0.9078088
0
LINE
8
DEFAULT_255_1_234
10
8.2729833
20
-0.6716757
11
8.299488
21
-0.6716757
0
LINE
8
DEFAULT_255_1_234
10
8.299488
20
-0.6716757
11
8.299488
21
-0.797774
0
LINE
8
DEFAULT_255_1_234
10
8.299488
20
-0.797774
11
8.2721801
21
-0.797774
0
LINE
8
DEFAULT_255_1_234
10
7.7252188
20
-1.3969417
11
7.7252188
21
-1.3399164
0
LINE
8
DEFAULT_255_1_234
10
7.8746091
20
-1.3591925
11
7.8746091
21
-1.4138083
0
ARC
8
DEFAULT_255_1_234
10
8.2774149
20
-1.2975545
40
0.4998079
50
90.6001036
51
104.514704
0
ARC
8
DEFAULT_255_1_234
10
8.2385665
20
-1.1530869
40
0.3502176
50
104.2855254
51
133.862935
0
ARC
8
DEFAULT_255_1_234
10
8.2549422
20
-1.163917
40
0.3693984
50
134.5302688
51
161.6210873
0
ARC
8
DEFAULT_255_1_234
10
8.4202611
20
-1.2222105
40
0.5446739
50
161.2849839
51
174.2076652
0
ARC
8
DEFAULT_255_1_234
10
8.5609548
20
-1.2416213
40
0.6866274
50
173.7810589
51
174.9254635
0
ARC
8
DEFAULT_255_1_234
10
8.105938
20
-1.3799161
40
0.3033419
50
95.8330959
51
138.9954921
0
ARC
8
DEFAULT_255_1_234
10
8.1282736
20
-1.5077625
40
0.4328947
50
89.8753725
51
97.0544009
0
ARC
8
DEFAULT_255_1_234
10
8.1330202
20
-1.4242252
40
0.3493769
50
71.6407809
51
90.6240094
0
ARC
8
DEFAULT_255_1_234
10
8.1480775
20
-1.3687918
40
0.2920396
50
39.6367836
51
71.019018
0
ARC
8
DEFAULT_255_1_234
10
8.0844248
20
-1.4238002
40
0.3761538
50
10.658731
51
39.9043955
0
ARC
8
DEFAULT_255_1_234
10
7.9296331
20
-1.4574314
40
0.5345136
50
359.682601
51
11.132623
0
ARC
8
DEFAULT_255_1_234
10
7.9256462
20
-1.464499
40
0.5385081
50
347.2486944
51
0.4369317
0
ARC
8
DEFAULT_255_1_234
10
8.0923939
20
-1.5046193
40
0.3670249
50
318.1409698
51
347.6118597
0
ARC
8
DEFAULT_255_1_234
10
8.1248932
20
-1.5313298
40
0.3250007
50
275.6342139
51
317.8248465
0
ARC
8
DEFAULT_255_1_234
10
8.1028043
20
-1.4013781
40
0.4565864
50
269.8874292
51
276.7917694
0
ARC
8
DEFAULT_255_1_234
10
8.0973114
20
-1.5039257
40
0.3540676
50
246.9140195
51
270.7437342
0
ARC
8
DEFAULT_255_1_234
10
8.0979504
20
-1.5181616
40
0.3412781
50
218.1665114
51
245.878116
0
ARC
8
DEFAULT_255_1_234
10
8.1858965
20
-1.4445721
40
0.455911
50
191.4115814
51
218.6077802
0
ARC
8
DEFAULT_255_1_234
10
8.3797054
20
-1.4011167
40
0.6545001
50
179.6345085
51
191.7836486
0
ARC
8
DEFAULT_255_1_234
10
8.9379391
20
-1.3332303
40
1.2127388
50
171.4525249
51
180.3158839
0
ARC
8
DEFAULT_255_1_234
10
8.4984267
20
-1.2648392
40
0.7679464
50
157.9802646
51
171.6246686
0
ARC
8
DEFAULT_255_1_234
10
8.2770288
20
-1.1765579
40
0.5296008
50
141.4298019
51
157.854097
0
ARC
8
DEFAULT_255_1_234
10
8.2128608
20
-1.1311619
40
0.4511509
50
102.8715806
51
140.8564722
0
ARC
8
DEFAULT_255_1_234
10
8.2776224
20
-1.3751448
40
0.7034845
50
90.3778349
51
103.5869322
0
ARC
8
DEFAULT_255_1_234
10
8.1038
20
-1.435627
40
0.2370698
50
89.8751008
51
126.2071704
0
ARC
8
DEFAULT_255_1_234
10
8.108379
20
-1.4510697
40
0.2522934
50
124.9745049
51
144.895901
0
ARC
8
DEFAULT_255_1_234
10
8.090798
20
-1.436744
40
0.2296779
50
145.2974905
51
160.2660252
0
ARC
8
DEFAULT_255_1_234
10
8.3980519
20
-1.4169929
40
0.5234525
50
179.6514266
51
190.2855912
0
ARC
8
DEFAULT_255_1_234
10
8.2286656
20
-1.4489214
40
0.3510893
50
190.0945431
51
207.5098196
0
ARC
8
DEFAULT_255_1_234
10
8.1720926
20
-1.4758377
40
0.288489
50
207.9583163
51
216.3251085
0
ARC
8
DEFAULT_255_1_234
10
8.1381034
20
-1.5037895
40
0.2445587
50
215.7661442
51
232.5456785
0
ARC
8
DEFAULT_255_1_234
10
8.0998017
20
-1.5524518
40
0.1826382
50
232.8005391
51
270.6605633
0
ARC
8
DEFAULT_255_1_234
10
8.1043718
20
-1.5160388
40
0.2190529
50
269.35537
51
288.4744281
0
ARC
8
DEFAULT_255_1_234
10
8.1136615
20
-1.5509882
40
0.1829749
50
289.1833337
51
322.9683818
0
ARC
8
DEFAULT_255_1_234
10
8.0525137
20
-1.5027609
40
0.2608399
50
322.6007884
51
346.5182367
0
ARC
8
DEFAULT_255_1_234
10
7.9367733
20
-1.4732384
40
0.3802777
50
346.2582162
51
358.7741648
0
ARC
8
DEFAULT_255_1_234
10
7.8349402
20
-1.4677035
40
0.4822176
50
358.3755224
51
0.0098023
0
ARC
8
DEFAULT_255_1_234
10
7.9105589
20
-1.4649343
40
0.4066078
50
359.6214041
51
11.2839074
0
ARC
8
DEFAULT_255_1_234
10
8.0382736
20
-1.4382934
40
0.2761514
50
11.0482309
51
31.8146458
0
ARC
8
DEFAULT_255_1_234
10
8.0691779
20
-1.4215416
40
0.2410679
50
32.3035391
51
38.082671
0
ARC
8
DEFAULT_255_1_234
10
8.1112439
20
-1.3834338
40
0.1844966
50
36.825067
51
85.7415724
0
ARC
8
DEFAULT_255_1_234
10
8.1045272
20
-1.4334699
40
0.2349122
50
85.0140713
51
90.0513278
0
ENDSEC
0
EOF