0
SECTION
2
HEADER
9
$MEASUREMENT
70
1
0
ENDSEC
0
SECTION
2
TABLES
0
TABLE
2
LTYPE
0
LTYPE
72
65
70
64
2
CONTINUOUS
3
______
73
0
40
0
0
ENDTAB
0
TABLE
2
LAYER
0
LAYER
2
DEFAULT_255_2_778_3
70
0
62
255
6
CONTINUOUS
0
LAYER
2
DEFAULT_255_2_778
70
0
62
255
6
CONTINUOUS
0
LAYER
2
DEFAULT_255_1_234
70
0
62
255
6
CONTINUOUS
0
ENDTAB
0
ENDSEC
0
SECTION
2
ENTITIES
0
LINE
8
DEFAULT_255_2_778_3
10
7.9097584
20
3.8365
11
6.0576584
21
3.8365
0
LINE
8
DEFAULT_255_2_778
10
7.0606604
20
4.9431906
11
8.3385604
21
5.2855906
0
LINE
8
DEFAULT_255_2_778
10
8.3385604
20
5.2855906
11
9.0233604
21
2.7299906
0
LINE
8
DEFAULT_255_2_778
10
9.0233604
20
2.7299906
11
7.7453604
21
2.3875906
0
LINE
8
DEFAULT_255_2_778
10
7.7453604
20
2.3875906
11
7.0606604
21
4.9431906
0
LINE
8
DEFAULT_255_2_778
10
8.7034834
20
10.4510831
11
8.7034834
21
6.4823831
0
LINE
8
DEFAULT_255_2_778
10
7.3805834
20
6.4823831
11
8.7034834
21
1.1906831
0
LINE
8
DEFAULT_255_2_778
10
8.7034834
20
1.1906831
11
8.7034834
21
-2.7781169
0
LINE
8
DEFAULT_255_2_778
10
6.0576834
20
4.4979831
11
6.0576834
21
3.1750831
0
LINE
8
DEFAULT_255_1_234
10
6.1899137
20
9.3370433
11
6.1899137
21
8.162
0
LINE
8
DEFAULT_255_1_234
10
6.1899137
20
8.162
11
6.0405234
21
8.162
0
LINE
8
DEFAULT_255_1_234
10
6.0405234
20
8.162
11
6.0405234
21
9.1523133
0
LINE
8
DEFAULT_255_1_234
10
6.0405234
20
9.1523133
11
5.7409396
21
9.0422785
0
LINE
8
DEFAULT_255_1_234
10
5.7409396
20
9.0422785
11
5.7409396
21
9.1772117
0
LINE
8
DEFAULT_255_1_234
10
5.7409396
20
9.1772117
11
6.1666217
21
9.3370433
0
LINE
8
DEFAULT_255_1_234
10
6.1666217
20
9.3370433
11
6.1899137
21
9.3370433
0
LINE
8
DEFAULT_255_1_234
10
6.4595119
20
-1.7206208
11
6.4595119
21
-1.8419
0
LINE
8
DEFAULT_255_1_234
10
6.4595119
20
-1.8419
11
5.693284
21
-1.8419
0
LINE
8
DEFAULT_255_1_234
10
5.693284
20
-1.8419
11
5.693284
21
-1.7350779
0
LINE
8
DEFAULT_255_1_234
10
5.693284
20
-1.7350779
11
6.0980836
21
-1.2853005
0
LINE
8
DEFAULT_255_1_234
10
5.8193823
20
-1.0170405
11
5.6707952
21
-1.0170405
0
LINE
8
DEFAULT_255_1_234
10
6.1856296
20
-1.3808782
11
5.8723918
21
-1.7206208
0
LINE
8
DEFAULT_255_1_234
10
5.8723918
20
-1.7206208
11
6.4595119
21
-1.7206208
0
ARC
8
DEFAULT_255_1_234
10
4.749067
20
-0.0923473
40
1.8008286
50
318.5132453
51
320.7828378
0
ARC
8
DEFAULT_255_1_234
10
5.2777644
20
-0.5226574
40
1.1191493
50
320.7372736
51
323.9737074
0
ARC
8
DEFAULT_255_1_234
10
5.6697501
20
-0.8066639
40
0.6350923
50
323.8961724
51
328.6421089
0
ARC
8
DEFAULT_255_1_234
10
5.8744096
20
-0.9328969
40
0.3946393
50
328.8299013
51
331.789948
0
ARC
8
DEFAULT_255_1_234
10
5.9741274
20
-0.9843491
40
0.2824501
50
331.4255242
51
352.9364833
0
ARC
8
DEFAULT_255_1_234
10
5.9877775
20
-0.9874024
40
0.2685315
50
353.2248685
51
0.0169286
0
ARC
8
DEFAULT_255_1_234
10
6.0087652
20
-0.985105
40
0.2475536
50
359.4866256
51
15.9339782
0
ARC
8
DEFAULT_255_1_234
10
6.0594637
20
-0.9714714
40
0.1950618
50
16.1714718
51
43.5284424
0
ARC
8
DEFAULT_255_1_234
10
6.0671946
20
-0.9637427
40
0.184134
50
43.4415429
51
83.1661404
0
ARC
8
DEFAULT_255_1_234
10
6.0537864
20
-1.0374229
40
0.258926
50
82.160215
51
90.1505798
0
ARC
8
DEFAULT_255_1_234
10
6.0506291
20
-1.0911135
40
0.3126255
50
89.5460705
51
102.5418777
0
ARC
8
DEFAULT_255_1_234
10
6.0263377
20
-0.9880335
40
0.2067346
50
102.1739365
51
129.2061916
0
ARC
8
DEFAULT_255_1_234
10
6.0184449
20
-0.9755906
40
0.1921118
50
129.7279328
51
135.7542026
0
ARC
8
DEFAULT_255_1_234
10
6.0305977
20
-0.9852955
40
0.2075944
50
136.175737
51
166.3674722
0
ARC
8
DEFAULT_255_1_234
10
6.1312896
20
-1.0122818
40
0.3118201
50
165.9092917
51
178.8683903
0
ARC
8
DEFAULT_255_1_234
10
6.2177757
20
-1.0169821
40
0.3983935
50
178.438168
51
180.0083905
0
ARC
8
DEFAULT_255_1_234
10
6.0776359
20
-1.0130769
40
0.4068601
50
163.2878735
51
180.5581814
0
ARC
8
DEFAULT_255_1_234
10
5.9974621
20
-0.991016
40
0.3237344
50
133.454115
51
162.9470031
0
ARC
8
DEFAULT_255_1_234
10
6.0153162
20
-1.01
40
0.349795
50
100.7869394
51
133.4384016
0
ARC
8
DEFAULT_255_1_234
10
6.0500934
20
-1.1648681
40
0.5084616
50
89.6605301
51
101.3704185
0
ARC
8
DEFAULT_255_1_234
10
6.0567273
20
-1.1587504
40
0.502348
50
78.2171172
51
90.4130393
0
ARC
8
DEFAULT_255_1_234
10
6.0922351
20
-0.9963363
40
0.3361092
50
55.9268222
51
78.4888551
0
ARC
8
DEFAULT_255_1_234
10
6.1118791
20
-0.9624676
40
0.2970617
50
47.9292255
51
55.4054003
0
ARC
8
DEFAULT_255_1_234
10
6.1220352
20
-0.9521498
40
0.2825983
50
4.3347696
51
48.0560701
0
ARC
8
DEFAULT_255_1_234
10
6.0124745
20
-0.9691399
40
0.393225
50
359.925209
51
5.5967654
0
ARC
8
DEFAULT_255_1_234
10
6.0553637
20
-0.9635184
40
0.3503892
50
337.8914096
51
358.9967724
0
ARC
8
DEFAULT_255_1_234
10
5.7840049
20
-0.8588294
40
0.6412172
50
326.9135351
51
338.3505194
0
ARC
8
DEFAULT_255_1_234
10
5.3854353
20
-0.6033716
40
1.1146189
50
319.6472867
51
327.095818
0
ARC
8
DEFAULT_255_1_234
10
5.0021356
20
-0.2872
40
1.6114559
50
317.2586784
51
319.9046139
0
ENDSEC
0
EOF