0
SECTION
2
HEADER
9
$MEASUREMENT
70
1
0
ENDSEC
0
SECTION
2
TABLES
0
TABLE
2
LTYPE
0
LTYPE
72
65
70
64
2
CONTINUOUS
3
______
73
0
40
0
0
ENDTAB
0
TABLE
2
LAYER
0
LAYER
2
DEFAULT_255_2_778
70
0
62
255
6
CONTINUOUS
0
LAYER
2
DEFAULT_255_1_388
70
0
62
255
6
CONTINUOUS
0
ENDTAB
0
ENDSEC
0
SECTION
2
ENTITIES
0
LINE
8
DEFAULT_255_2_778
10
10.1864417
20
10.4510831
11
10.1864417
21
6.4823831
0
LINE
8
DEFAULT_255_2_778
10
10.1864417
20
-2.7781169
11
10.1864417
21
1.1906831
0
LINE
8
DEFAULT_255_2_778
10
10.1864417
20
1.1906831
11
8.8635417
21
6.4823831
0
LINE
8
DEFAULT_255_1_388
10
7.6876985
20
9.4954148
11
7.6876985
21
8.1735
0
LINE
8
DEFAULT_255_1_388
10
7.6876985
20
8.1735
11
7.5196355
21
8.1735
0
LINE
8
DEFAULT_255_1_388
10
7.5196355
20
8.1735
11
7.5196355
21
9.287595
0
LINE
8
DEFAULT_255_1_388
10
7.5196355
20
9.287595
11
7.182606
21
9.1638066
0
LINE
8
DEFAULT_255_1_388
10
7.182606
20
9.1638066
11
7.182606
21
9.3156055
0
LINE
8
DEFAULT_255_1_388
10
7.182606
20
9.3156055
11
7.6614951
21
9.4954148
0
LINE
8
DEFAULT_255_1_388
10
7.6614951
20
9.4954148
11
7.6876985
21
9.4954148
0
LINE
8
DEFAULT_255_1_388
10
7.9921318
20
-1.6939618
11
7.9921318
21
-1.8304
0
LINE
8
DEFAULT_255_1_388
10
7.9921318
20
-1.8304
11
7.1301313
21
-1.8304
0
LINE
8
DEFAULT_255_1_388
10
7.1301313
20
-1.8304
11
7.1301313
21
-1.7102259
0
LINE
8
DEFAULT_255_1_388
10
7.1301313
20
-1.7102259
11
7.5855278
21
-1.2042298
0
LINE
8
DEFAULT_255_1_388
10
7.2719909
20
-0.9024393
11
7.1048315
21
-0.9024393
0
LINE
8
DEFAULT_255_1_388
10
7.6840163
20
-1.311754
11
7.3316262
21
-1.6939618
0
LINE
8
DEFAULT_255_1_388
10
7.3316262
20
-1.6939618
11
7.9921318
21
-1.6939618
0
ARC
8
DEFAULT_255_1_388
10
6.0679337
20
0.1377983
40
2.0258655
50
318.5132526
51
320.7829045
0
ARC
8
DEFAULT_255_1_388
10
6.6627294
20
-0.3463071
40
1.2589638
50
320.7372878
51
323.9739031
0
ARC
8
DEFAULT_255_1_388
10
7.1036226
20
-0.6657446
40
0.7145141
50
323.8962701
51
328.64194
0
ARC
8
DEFAULT_255_1_388
10
7.3338484
20
-0.8077455
40
0.4440242
50
328.8294576
51
331.7891185
0
ARC
8
DEFAULT_255_1_388
10
7.4460804
20
-0.8656626
40
0.3177517
50
331.4254512
51
352.9365785
0
ARC
8
DEFAULT_255_1_388
10
7.4613804
20
-0.869095
40
0.3021496
50
353.2257659
51
0.0166158
0
ARC
8
DEFAULT_255_1_388
10
7.4850564
20
-0.8665106
40
0.2784847
50
359.486299
51
15.9343185
0
ARC
8
DEFAULT_255_1_388
10
7.5420831
20
-0.8511731
40
0.2194403
50
16.1712913
51
43.5286088
0
ARC
8
DEFAULT_255_1_388
10
7.5507776
20
-0.8424809
40
0.2071504
50
43.4417391
51
83.1661095
0
ARC
8
DEFAULT_255_1_388
10
7.5356937
20
-0.9253684
40
0.2912888
50
82.160179
51
90.1505708
0
ARC
8
DEFAULT_255_1_388
10
7.5321418
20
-0.9857721
40
0.3517025
50
89.5460741
51
102.5418361
0
ARC
8
DEFAULT_255_1_388
10
7.5048138
20
-0.8698067
40
0.2325748
50
102.1738499
51
129.206123
0
ARC
8
DEFAULT_255_1_388
10
7.4959592
20
-0.8558336
40
0.2161591
50
129.72865
51
135.753947
0
ARC
8
DEFAULT_255_1_388
10
7.5096074
20
-0.8667272
40
0.2335433
50
136.1757367
51
166.3673339
0
ARC
8
DEFAULT_255_1_388
10
7.6228762
20
-0.8970852
40
0.3507873
50
165.9090694
51
178.8684636
0
ARC
8
DEFAULT_255_1_388
10
7.7204534
20
-0.9023737
40
0.4484624
50
178.4391136
51
180.0083808
0
ARC
8
DEFAULT_255_1_388
10
7.5625235
20
-0.8979803
40
0.4577138
50
163.2878482
51
180.5581842
0
ARC
8
DEFAULT_255_1_388
10
7.4723276
20
-0.8731607
40
0.3641968
50
133.4540601
51
162.947111
0
ARC
8
DEFAULT_255_1_388
10
7.4924158
20
-0.8945211
40
0.3935189
50
100.7869829
51
133.4382499
0
ARC
8
DEFAULT_255_1_388
10
7.5315403
20
-1.0687601
40
0.5720313
50
89.660664
51
101.3702276
0
ARC
8
DEFAULT_255_1_388
10
7.5390012
20
-1.0618737
40
0.5651495
50
78.2172678
51
90.412935
0
ARC
8
DEFAULT_255_1_388
10
7.5789478
20
-0.8791489
40
0.378122
50
55.9269121
51
78.4888449
0
ARC
8
DEFAULT_255_1_388
10
7.6010193
20
-0.8410813
40
0.3342379
50
47.929771
51
55.4049217
0
ARC
8
DEFAULT_255_1_388
10
7.6124723
20
-0.8294382
40
0.3179217
50
4.334829
51
48.0560205
0
ARC
8
DEFAULT_255_1_388
10
7.4892525
20
-0.8485513
40
0.442341
50
359.9251713
51
5.5971671
0
ARC
8
DEFAULT_255_1_388
10
7.537468
20
-0.8422272
40
0.3941854
50
337.8914027
51
358.9967534
0
ARC
8
DEFAULT_255_1_388
10
7.232225
20
-0.7244705
40
0.7213271
50
326.9132501
51
338.3508308
0
ARC
8
DEFAULT_255_1_388
10
6.7838362
20
-0.4370895
40
1.2538973
50
319.6471833
51
327.0959558
0
ARC
8
DEFAULT_255_1_388
10
6.352502
20
-0.081295
40
1.8129975
50
317.2588228
51
319.9045804
0
ENDSEC
0
EOF