0
SECTION
2
HEADER
9
$MEASUREMENT
70
1
0
ENDSEC
0
SECTION
2
TABLES
0
TABLE
2
LTYPE
0
LTYPE
72
65
70
64
2
CONTINUOUS
3
______
73
0
40
0
0
ENDTAB
0
TABLE
2
LAYER
0
LAYER
2
DEFAULT_255_2_778_3
70
0
62
255
6
CONTINUOUS
0
LAYER
2
DEFAULT_255_2_778
70
0
62
255
6
CONTINUOUS
0
LAYER
2
DEFAULT_255_1_234
70
0
62
255
6
CONTINUOUS
0
ENDTAB
0
ENDSEC
0
SECTION
2
ENTITIES
0
LINE
8
DEFAULT_255_2_778_3
10
11.3770793
20
9.6573
11
4.1010793
21
9.6573
0
LINE
8
DEFAULT_255_2_778
10
12.0385
20
11.7739749
11
12.0385
21
15.7426749
0
LINE
8
DEFAULT_255_2_778
10
6.4823
20
11.2448
11
9.6573
21
11.2448
0
LINE
8
DEFAULT_255_2_778
10
9.6573
20
11.2448
11
9.6573
21
8.0698
0
LINE
8
DEFAULT_255_2_778
10
9.6573
20
8.0698
11
6.4823
21
8.0698
0
LINE
8
DEFAULT_255_2_778
10
6.4823
20
8.0698
11
6.4823
21
11.2448
0
LINE
8
DEFAULT_255_2_778
10
8.0698
20
11.2448
11
8.0698
21
8.0698
0
LINE
8
DEFAULT_255_2_778
10
6.4823
20
9.6573
11
9.6573
21
9.6573
0
LINE
8
DEFAULT_255_2_778
10
4.101
20
10.45105
11
4.101
21
8.86355
0
LINE
8
DEFAULT_255_2_778
10
12.0385417
20
5.1592916
11
12.0385417
21
7.8051916
0
LINE
8
DEFAULT_255_2_778
10
12.0385417
20
7.8051916
11
10.7156417
21
11.7738916
0
LINE
8
DEFAULT_255_2_778
10
12.0385
20
-2.7781667
11
12.0385
21
2.5135333
0
LINE
8
DEFAULT_255_2_778
10
9.3926667
20
3.8356166
11
14.6843667
21
3.8356166
0
LINE
8
DEFAULT_255_2_778
10
14.6843667
20
3.8356166
11
14.6843667
21
1.1898166
0
LINE
8
DEFAULT_255_2_778
10
14.6843667
20
1.1898166
11
9.3926667
21
1.1898166
0
LINE
8
DEFAULT_255_2_778
10
9.3926667
20
1.1898166
11
9.3926667
21
3.8356166
0
LINE
8
DEFAULT_255_2_778
10
11.3771083
20
3.1741583
11
11.1125083
21
1.8512583
0
LINE
8
DEFAULT_255_2_778
10
11.1125167
20
3.1742
11
11.6417167
21
3.1742
0
LINE
8
DEFAULT_255_2_778
10
10.8479167
20
1.8513
11
11.3771167
21
1.8513
0
LINE
8
DEFAULT_255_2_778
10
12.1708333
20
3.1741583
11
13.2291333
21
2.5126583
0
LINE
8
DEFAULT_255_2_778
10
13.2291333
20
2.5126583
11
12.1708333
21
1.8512583
0
LINE
8
DEFAULT_255_2_778
10
9.3926667
20
6.4822166
11
14.6843667
21
6.4822166
0
LINE
8
DEFAULT_255_2_778
10
14.6843667
20
6.4822166
11
14.6843667
21
3.8364166
0
LINE
8
DEFAULT_255_2_778
10
14.6843667
20
3.8364166
11
9.3926667
21
3.8364166
0
LINE
8
DEFAULT_255_2_778
10
9.3926667
20
3.8364166
11
9.3926667
21
6.4822166
0
LINE
8
DEFAULT_255_2_778
10
12.0385417
20
6.4822166
11
12.0385417
21
5.8207166
0
LINE
8
DEFAULT_255_2_778
10
12.0385417
20
5.8207166
11
13.3614417
21
5.8207166
0
LINE
8
DEFAULT_255_2_778
10
13.3614417
20
5.8207166
11
13.3614417
21
4.4978166
0
LINE
8
DEFAULT_255_2_778
10
13.3614417
20
4.4978166
11
12.0385417
21
4.4978166
0
LINE
8
DEFAULT_255_2_778
10
12.0385417
20
4.4978166
11
12.0385417
21
3.8364166
0
LINE
8
DEFAULT_255_2_778_3
10
8.0698
20
7.8051656
11
8.0698
21
2.5132656
0
LINE
8
DEFAULT_255_2_778_3
10
8.0697417
20
2.5132
11
9.3926417
21
2.5132
0
LINE
8
DEFAULT_255_2_778_3
10
8.0697417
20
5.1593
11
9.3926417
21
5.1593
0
LINE
8
DEFAULT_255_1_234
10
9.5247137
20
15.2086433
11
9.5247137
21
14.0336
0
LINE
8
DEFAULT_255_1_234
10
9.5247137
20
14.0336
11
9.3753234
21
14.0336
0
LINE
8
DEFAULT_255_1_234
10
9.3753234
20
14.0336
11
9.3753234
21
15.0239133
0
LINE
8
DEFAULT_255_1_234
10
9.3753234
20
15.0239133
11
9.0757396
21
14.9138785
0
LINE
8
DEFAULT_255_1_234
10
9.0757396
20
14.9138785
11
9.0757396
21
15.0488117
0
LINE
8
DEFAULT_255_1_234
10
9.0757396
20
15.0488117
11
9.5014217
21
15.2086433
0
LINE
8
DEFAULT_255_1_234
10
9.5014217
20
15.2086433
11
9.5247137
21
15.2086433
0
LINE
8
DEFAULT_255_1_234
10
9.7943119
20
-1.7212208
11
9.7943119
21
-1.8425
0
LINE
8
DEFAULT_255_1_234
10
9.7943119
20
-1.8425
11
9.028084
21
-1.8425
0
LINE
8
DEFAULT_255_1_234
10
9.028084
20
-1.8425
11
9.028084
21
-1.7356779
0
LINE
8
DEFAULT_255_1_234
10
9.028084
20
-1.7356779
11
9.4328836
21
-1.2859005
0
LINE
8
DEFAULT_255_1_234
10
9.1541823
20
-1.0176405
11
9.0055952
21
-1.0176405
0
LINE
8
DEFAULT_255_1_234
10
9.5204296
20
-1.3814782
11
9.2071918
21
-1.7212208
0
LINE
8
DEFAULT_255_1_234
10
9.2071918
20
-1.7212208
11
9.7943119
21
-1.7212208
0
ARC
8
DEFAULT_255_1_234
10
8.083867
20
-0.0929473
40
1.8008286
50
318.5132453
51
320.7828378
0
ARC
8
DEFAULT_255_1_234
10
8.6125644
20
-0.5232574
40
1.1191493
50
320.7372736
51
323.9737074
0
ARC
8
DEFAULT_255_1_234
10
9.0045501
20
-0.8072639
40
0.6350923
50
323.8961724
51
328.6421089
0
ARC
8
DEFAULT_255_1_234
10
9.2092096
20
-0.9334969
40
0.3946393
50
328.8299013
51
331.789948
0
ARC
8
DEFAULT_255_1_234
10
9.3089274
20
-0.9849491
40
0.2824501
50
331.4255242
51
352.9364833
0
ARC
8
DEFAULT_255_1_234
10
9.3225775
20
-0.9880024
40
0.2685315
50
353.2248685
51
0.0169286
0
ARC
8
DEFAULT_255_1_234
10
9.3435652
20
-0.985705
40
0.2475536
50
359.4866256
51
15.9339782
0
ARC
8
DEFAULT_255_1_234
10
9.3942637
20
-0.9720714
40
0.1950618
50
16.1714718
51
43.5284424
0
ARC
8
DEFAULT_255_1_234
10
9.4019946
20
-0.9643427
40
0.184134
50
43.4415429
51
83.1661404
0
ARC
8
DEFAULT_255_1_234
10
9.3885864
20
-1.0380229
40
0.258926
50
82.160215
51
90.1505798
0
ARC
8
DEFAULT_255_1_234
10
9.3854291
20
-1.0917135
40
0.3126255
50
89.5460705
51
102.5418777
0
ARC
8
DEFAULT_255_1_234
10
9.3611377
20
-0.9886335
40
0.2067346
50
102.1739365
51
129.2061916
0
ARC
8
DEFAULT_255_1_234
10
9.3532449
20
-0.9761906
40
0.1921118
50
129.7279328
51
135.7542026
0
ARC
8
DEFAULT_255_1_234
10
9.3653977
20
-0.9858955
40
0.2075944
50
136.175737
51
166.3674722
0
ARC
8
DEFAULT_255_1_234
10
9.4660896
20
-1.0128818
40
0.3118201
50
165.9092917
51
178.8683903
0
ARC
8
DEFAULT_255_1_234
10
9.5525757
20
-1.0175821
40
0.3983935
50
178.438168
51
180.0083905
0
ARC
8
DEFAULT_255_1_234
10
9.4124359
20
-1.0136769
40
0.4068601
50
163.2878735
51
180.5581814
0
ARC
8
DEFAULT_255_1_234
10
9.3322621
20
-0.991616
40
0.3237344
50
133.454115
51
162.9470031
0
ARC
8
DEFAULT_255_1_234
10
9.3501162
20
-1.0106
40
0.349795
50
100.7869394
51
133.4384016
0
ARC
8
DEFAULT_255_1_234
10
9.3848934
20
-1.1654681
40
0.5084616
50
89.6605301
51
101.3704185
0
ARC
8
DEFAULT_255_1_234
10
9.3915273
20
-1.1593504
40
0.502348
50
78.2171172
51
90.4130393
0
ARC
8
DEFAULT_255_1_234
10
9.4270351
20
-0.9969363
40
0.3361092
50
55.9268222
51
78.4888551
0
ARC
8
DEFAULT_255_1_234
10
9.4466791
20
-0.9630676
40
0.2970617
50
47.9292255
51
55.4054003
0
ARC
8
DEFAULT_255_1_234
10
9.4568352
20
-0.9527498
40
0.2825983
50
4.3347696
51
48.0560701
0
ARC
8
DEFAULT_255_1_234
10
9.3472745
20
-0.9697399
40
0.393225
50
359.925209
51
5.5967654
0
ARC
8
DEFAULT_255_1_234
10
9.3901637
20
-0.9641184
40
0.3503892
50
337.8914096
51
358.9967724
0
ARC
8
DEFAULT_255_1_234
10
9.1188049
20
-0.8594294
40
0.6412172
50
326.9135351
51
338.3505194
0
ARC
8
DEFAULT_255_1_234
10
8.7202353
20
-0.6039716
40
1.1146189
50
319.6472867
51
327.095818
0
ARC
8
DEFAULT_255_1_234
10
8.3369356
20
-0.2878
40
1.6114559
50
317.2586784
51
319.9046139
0
ENDSEC
0
EOF