0
SECTION
2
HEADER
9
$MEASUREMENT
70
1
0
ENDSEC
0
SECTION
2
TABLES
0
TABLE
2
LTYPE
0
LTYPE
72
65
70
64
2
CONTINUOUS
3
______
73
0
40
0
0
ENDTAB
0
TABLE
2
LAYER
0
LAYER
2
DEFAULT_255_2_778_3
70
0
62
255
6
CONTINUOUS
0
LAYER
2
DEFAULT_255_2_778
70
0
62
255
6
CONTINUOUS
0
LAYER
2
DEFAULT_255_1_388
70
0
62
255
6
CONTINUOUS
0
ENDTAB
0
ENDSEC
0
SECTION
2
ENTITIES
0
LINE
8
DEFAULT_255_2_778_3
10
11.3770793
20
9.6573
11
4.1010793
21
9.6573
0
LINE
8
DEFAULT_255_2_778
10
12.0385
20
11.7739749
11
12.0385
21
15.7426749
0
LINE
8
DEFAULT_255_2_778
10
6.4823
20
11.2448
11
9.6573
21
11.2448
0
LINE
8
DEFAULT_255_2_778
10
9.6573
20
11.2448
11
9.6573
21
8.0698
0
LINE
8
DEFAULT_255_2_778
10
9.6573
20
8.0698
11
6.4823
21
8.0698
0
LINE
8
DEFAULT_255_2_778
10
6.4823
20
8.0698
11
6.4823
21
11.2448
0
LINE
8
DEFAULT_255_2_778
10
8.0698
20
11.2448
11
8.0698
21
8.0698
0
LINE
8
DEFAULT_255_2_778
10
6.4823
20
9.6573
11
9.6573
21
9.6573
0
LINE
8
DEFAULT_255_2_778
10
4.101
20
10.45105
11
4.101
21
8.86355
0
LINE
8
DEFAULT_255_2_778
10
12.0385417
20
5.1592916
11
12.0385417
21
7.8051916
0
LINE
8
DEFAULT_255_2_778
10
12.0385417
20
7.8051916
11
10.7156417
21
11.7738916
0
LINE
8
DEFAULT_255_2_778
10
12.0385
20
-2.7781667
11
12.0385
21
2.5135333
0
LINE
8
DEFAULT_255_2_778
10
9.3926667
20
3.8356166
11
14.6843667
21
3.8356166
0
LINE
8
DEFAULT_255_2_778
10
14.6843667
20
3.8356166
11
14.6843667
21
1.1898166
0
LINE
8
DEFAULT_255_2_778
10
14.6843667
20
1.1898166
11
9.3926667
21
1.1898166
0
LINE
8
DEFAULT_255_2_778
10
9.3926667
20
1.1898166
11
9.3926667
21
3.8356166
0
LINE
8
DEFAULT_255_2_778
10
11.3771083
20
3.1741583
11
11.1125083
21
1.8512583
0
LINE
8
DEFAULT_255_2_778
10
11.1125167
20
3.1742
11
11.6417167
21
3.1742
0
LINE
8
DEFAULT_255_2_778
10
10.8479167
20
1.8513
11
11.3771167
21
1.8513
0
LINE
8
DEFAULT_255_2_778
10
12.1708333
20
3.1741583
11
13.2291333
21
2.5126583
0
LINE
8
DEFAULT_255_2_778
10
13.2291333
20
2.5126583
11
12.1708333
21
1.8512583
0
LINE
8
DEFAULT_255_2_778
10
9.3926667
20
6.4822166
11
14.6843667
21
6.4822166
0
LINE
8
DEFAULT_255_2_778
10
14.6843667
20
6.4822166
11
14.6843667
21
3.8364166
0
LINE
8
DEFAULT_255_2_778
10
14.6843667
20
3.8364166
11
9.3926667
21
3.8364166
0
LINE
8
DEFAULT_255_2_778
10
9.3926667
20
3.8364166
11
9.3926667
21
6.4822166
0
LINE
8
DEFAULT_255_2_778
10
12.0385417
20
6.4822166
11
12.0385417
21
5.8207166
0
LINE
8
DEFAULT_255_2_778
10
12.0385417
20
5.8207166
11
13.3614417
21
5.8207166
0
LINE
8
DEFAULT_255_2_778
10
13.3614417
20
5.8207166
11
13.3614417
21
4.4978166
0
LINE
8
DEFAULT_255_2_778
10
13.3614417
20
4.4978166
11
12.0385417
21
4.4978166
0
LINE
8
DEFAULT_255_2_778
10
12.0385417
20
4.4978166
11
12.0385417
21
3.8364166
0
LINE
8
DEFAULT_255_2_778_3
10
8.0698
20
7.8051656
11
8.0698
21
2.5132656
0
LINE
8
DEFAULT_255_2_778_3
10
8.0697417
20
2.5132
11
9.3926417
21
2.5132
0
LINE
8
DEFAULT_255_2_778_3
10
8.0697417
20
5.1593
11
9.3926417
21
5.1593
0
LINE
8
DEFAULT_255_1_388
10
9.5397985
20
15.3670148
11
9.5397985
21
14.0451
0
LINE
8
DEFAULT_255_1_388
10
9.5397985
20
14.0451
11
9.3717355
21
14.0451
0
LINE
8
DEFAULT_255_1_388
10
9.3717355
20
14.0451
11
9.3717355
21
15.159195
0
LINE
8
DEFAULT_255_1_388
10
9.3717355
20
15.159195
11
9.034706
21
15.0354066
0
LINE
8
DEFAULT_255_1_388
10
9.034706
20
15.0354066
11
9.034706
21
15.1872055
0
LINE
8
DEFAULT_255_1_388
10
9.034706
20
15.1872055
11
9.5135951
21
15.3670148
0
LINE
8
DEFAULT_255_1_388
10
9.5135951
20
15.3670148
11
9.5397985
21
15.3670148
0
LINE
8
DEFAULT_255_1_388
10
9.8441318
20
-1.6944618
11
9.8441318
21
-1.8309
0
LINE
8
DEFAULT_255_1_388
10
9.8441318
20
-1.8309
11
8.9821313
21
-1.8309
0
LINE
8
DEFAULT_255_1_388
10
8.9821313
20
-1.8309
11
8.9821313
21
-1.7107259
0
LINE
8
DEFAULT_255_1_388
10
8.9821313
20
-1.7107259
11
9.4375278
21
-1.2047298
0
LINE
8
DEFAULT_255_1_388
10
9.1239909
20
-0.9029393
11
8.9568315
21
-0.9029393
0
LINE
8
DEFAULT_255_1_388
10
9.5360163
20
-1.312254
11
9.1836262
21
-1.6944618
0
LINE
8
DEFAULT_255_1_388
10
9.1836262
20
-1.6944618
11
9.8441318
21
-1.6944618
0
ARC
8
DEFAULT_255_1_388
10
7.9199337
20
0.1372983
40
2.0258655
50
318.5132526
51
320.7829045
0
ARC
8
DEFAULT_255_1_388
10
8.5147294
20
-0.3468071
40
1.2589638
50
320.7372878
51
323.9739031
0
ARC
8
DEFAULT_255_1_388
10
8.9556226
20
-0.6662446
40
0.7145141
50
323.8962701
51
328.64194
0
ARC
8
DEFAULT_255_1_388
10
9.1858484
20
-0.8082455
40
0.4440242
50
328.8294576
51
331.7891185
0
ARC
8
DEFAULT_255_1_388
10
9.2980804
20
-0.8661626
40
0.3177517
50
331.4254512
51
352.9365785
0
ARC
8
DEFAULT_255_1_388
10
9.3133804
20
-0.869595
40
0.3021496
50
353.2257659
51
0.0166158
0
ARC
8
DEFAULT_255_1_388
10
9.3370564
20
-0.8670106
40
0.2784847
50
359.486299
51
15.9343185
0
ARC
8
DEFAULT_255_1_388
10
9.3940831
20
-0.8516731
40
0.2194403
50
16.1712913
51
43.5286088
0
ARC
8
DEFAULT_255_1_388
10
9.4027776
20
-0.8429809
40
0.2071504
50
43.4417391
51
83.1661095
0
ARC
8
DEFAULT_255_1_388
10
9.3876937
20
-0.9258684
40
0.2912888
50
82.160179
51
90.1505708
0
ARC
8
DEFAULT_255_1_388
10
9.3841418
20
-0.9862721
40
0.3517025
50
89.5460741
51
102.5418361
0
ARC
8
DEFAULT_255_1_388
10
9.3568138
20
-0.8703067
40
0.2325748
50
102.1738499
51
129.206123
0
ARC
8
DEFAULT_255_1_388
10
9.3479592
20
-0.8563336
40
0.2161591
50
129.72865
51
135.753947
0
ARC
8
DEFAULT_255_1_388
10
9.3616074
20
-0.8672272
40
0.2335433
50
136.1757367
51
166.3673339
0
ARC
8
DEFAULT_255_1_388
10
9.4748762
20
-0.8975852
40
0.3507873
50
165.9090694
51
178.8684636
0
ARC
8
DEFAULT_255_1_388
10
9.5724534
20
-0.9028737
40
0.4484624
50
178.4391136
51
180.0083808
0
ARC
8
DEFAULT_255_1_388
10
9.4145235
20
-0.8984803
40
0.4577138
50
163.2878482
51
180.5581842
0
ARC
8
DEFAULT_255_1_388
10
9.3243276
20
-0.8736607
40
0.3641968
50
133.4540601
51
162.947111
0
ARC
8
DEFAULT_255_1_388
10
9.3444158
20
-0.8950211
40
0.3935189
50
100.7869829
51
133.4382499
0
ARC
8
DEFAULT_255_1_388
10
9.3835403
20
-1.0692601
40
0.5720313
50
89.660664
51
101.3702276
0
ARC
8
DEFAULT_255_1_388
10
9.3910012
20
-1.0623737
40
0.5651495
50
78.2172678
51
90.412935
0
ARC
8
DEFAULT_255_1_388
10
9.4309478
20
-0.8796489
40
0.378122
50
55.9269121
51
78.4888449
0
ARC
8
DEFAULT_255_1_388
10
9.4530193
20
-0.8415813
40
0.3342379
50
47.929771
51
55.4049217
0
ARC
8
DEFAULT_255_1_388
10
9.4644723
20
-0.8299382
40
0.3179217
50
4.334829
51
48.0560205
0
ARC
8
DEFAULT_255_1_388
10
9.3412525
20
-0.8490513
40
0.442341
50
359.9251713
51
5.5971671
0
ARC
8
DEFAULT_255_1_388
10
9.389468
20
-0.8427272
40
0.3941854
50
337.8914027
51
358.9967534
0
ARC
8
DEFAULT_255_1_388
10
9.084225
20
-0.7249705
40
0.7213271
50
326.9132501
51
338.3508308
0
ARC
8
DEFAULT_255_1_388
10
8.6358362
20
-0.4375895
40
1.2538973
50
319.6471833
51
327.0959558
0
ARC
8
DEFAULT_255_1_388
10
8.204502
20
-0.081795
40
1.8129975
50
317.2588228
51
319.9045804
0
ENDSEC
0
EOF