0
SECTION
2
HEADER
9
$MEASUREMENT
70
1
0
ENDSEC
0
SECTION
2
TABLES
0
TABLE
2
LTYPE
0
LTYPE
72
65
70
64
2
CONTINUOUS
3
______
73
0
40
0
0
ENDTAB
0
TABLE
2
LAYER
0
LAYER
2
DEFAULT_255_2_778_2
70
0
62
255
6
CONTINUOUS
0
LAYER
2
DEFAULT_255_2_778_3
70
0
62
255
6
CONTINUOUS
0
LAYER
2
DEFAULT_255_2_778
70
0
62
255
6
CONTINUOUS
0
LAYER
2
DEFAULT_255_1_234
70
0
62
255
6
CONTINUOUS
0
ENDTAB
0
ENDSEC
0
SECTION
2
ENTITIES
0
LINE
8
DEFAULT_255_2_778_2
10
9.39405
20
5.1593
11
7.80655
21
5.1593
0
LINE
8
DEFAULT_255_2_778_3
10
9.39405
20
2.5132
11
7.80655
21
2.5132
0
LINE
8
DEFAULT_255_2_778
10
12.038
20
11.7739749
11
12.038
21
15.7426749
0
LINE
8
DEFAULT_255_2_778
10
17.3315
20
11.7739749
11
17.3315
21
15.7426749
0
LINE
8
DEFAULT_255_2_778
10
6.2182
20
10.9802
11
9.3932
21
10.9802
0
LINE
8
DEFAULT_255_2_778
10
9.3932
20
10.9802
11
9.3932
21
7.8052
0
LINE
8
DEFAULT_255_2_778
10
9.3932
20
7.8052
11
6.2182
21
7.8052
0
LINE
8
DEFAULT_255_2_778
10
6.2182
20
7.8052
11
6.2182
21
10.9802
0
LINE
8
DEFAULT_255_2_778
10
7.8065
20
10.9802
11
7.8065
21
7.8052
0
LINE
8
DEFAULT_255_2_778
10
6.2182
20
9.3927
11
9.3932
21
9.3927
0
LINE
8
DEFAULT_255_2_778_3
10
22.0924002
20
9.3927
11
9.3924002
21
9.3927
0
LINE
8
DEFAULT_255_2_778
10
4.1013
20
10.18645
11
4.1013
21
8.59895
0
LINE
8
DEFAULT_255_2_778
10
22.6227
20
11.7739749
11
22.6227
21
15.7426749
0
LINE
8
DEFAULT_255_2_778
10
12.038
20
-2.7781667
11
12.038
21
2.5135333
0
LINE
8
DEFAULT_255_2_778
10
17.3315
20
-2.7781667
11
17.3315
21
2.5135333
0
LINE
8
DEFAULT_255_2_778
10
22.6227
20
-2.7781667
11
22.6227
21
2.5135333
0
LINE
8
DEFAULT_255_2_778_3
10
6.2179667
20
9.3927
11
4.1012667
21
9.3927
0
LINE
8
DEFAULT_255_2_778
10
21.2987417
20
11.7738916
11
22.6216417
21
7.8051916
0
LINE
8
DEFAULT_255_2_778
10
22.6216417
20
7.8051916
11
22.6216417
21
5.1592916
0
LINE
8
DEFAULT_255_2_778
10
16.0075417
20
11.7738916
11
17.3304417
21
7.8051916
0
LINE
8
DEFAULT_255_2_778
10
17.3304417
20
7.8051916
11
17.3304417
21
5.1592916
0
LINE
8
DEFAULT_255_2_778
10
10.7164417
20
11.7738916
11
12.0393417
21
7.8051916
0
LINE
8
DEFAULT_255_2_778
10
12.0393417
20
7.8051916
11
12.0393417
21
5.1592916
0
LINE
8
DEFAULT_255_2_778
10
9.3924002
20
6.4822166
11
25.2674002
21
6.4822166
0
LINE
8
DEFAULT_255_2_778
10
25.2674002
20
6.4822166
11
25.2674002
21
3.8364166
0
LINE
8
DEFAULT_255_2_778
10
25.2674002
20
3.8364166
11
9.3924002
21
3.8364166
0
LINE
8
DEFAULT_255_2_778
10
9.3924002
20
3.8364166
11
9.3924002
21
6.4822166
0
LINE
8
DEFAULT_255_2_778
10
22.6216417
20
6.4822166
11
22.6216417
21
5.8207166
0
LINE
8
DEFAULT_255_2_778
10
22.6216417
20
5.8207166
11
23.9445417
21
5.8207166
0
LINE
8
DEFAULT_255_2_778
10
23.9445417
20
5.8207166
11
23.9445417
21
4.4978166
0
LINE
8
DEFAULT_255_2_778
10
23.9445417
20
4.4978166
11
22.6216417
21
4.4978166
0
LINE
8
DEFAULT_255_2_778
10
22.6216417
20
4.4978166
11
22.6216417
21
3.8364166
0
LINE
8
DEFAULT_255_2_778
10
17.3299417
20
6.4822166
11
17.3299417
21
5.8207166
0
LINE
8
DEFAULT_255_2_778
10
17.3299417
20
5.8207166
11
18.6528417
21
5.8207166
0
LINE
8
DEFAULT_255_2_778
10
18.6528417
20
5.8207166
11
18.6528417
21
4.4978166
0
LINE
8
DEFAULT_255_2_778
10
18.6528417
20
4.4978166
11
17.3299417
21
4.4978166
0
LINE
8
DEFAULT_255_2_778
10
17.3299417
20
4.4978166
11
17.3299417
21
3.8364166
0
LINE
8
DEFAULT_255_2_778
10
12.0382417
20
6.4822166
11
12.0382417
21
5.8207166
0
LINE
8
DEFAULT_255_2_778
10
12.0382417
20
5.8207166
11
13.3611417
21
5.8207166
0
LINE
8
DEFAULT_255_2_778
10
13.3611417
20
5.8207166
11
13.3611417
21
4.4978166
0
LINE
8
DEFAULT_255_2_778
10
13.3611417
20
4.4978166
11
12.0382417
21
4.4978166
0
LINE
8
DEFAULT_255_2_778
10
12.0382417
20
4.4978166
11
12.0382417
21
3.8364166
0
LINE
8
DEFAULT_255_2_778
10
9.3924002
20
3.8356166
11
25.2674002
21
3.8356166
0
LINE
8
DEFAULT_255_2_778
10
25.2674002
20
3.8356166
11
25.2674002
21
1.1898166
0
LINE
8
DEFAULT_255_2_778
10
25.2674002
20
1.1898166
11
9.3924002
21
1.1898166
0
LINE
8
DEFAULT_255_2_778
10
9.3924002
20
1.1898166
11
9.3924002
21
3.8356166
0
LINE
8
DEFAULT_255_2_778
10
11.3768083
20
3.1741583
11
11.1122083
21
1.8512583
0
LINE
8
DEFAULT_255_2_778
10
11.1122167
20
3.1742
11
11.6414167
21
3.1742
0
LINE
8
DEFAULT_255_2_778
10
10.8476167
20
1.8513
11
11.3768167
21
1.8513
0
LINE
8
DEFAULT_255_2_778
10
12.1705333
20
3.1741583
11
13.2288333
21
2.5126583
0
LINE
8
DEFAULT_255_2_778
10
13.2288333
20
2.5126583
11
12.1705333
21
1.8512583
0
LINE
8
DEFAULT_255_2_778
10
16.6685083
20
3.1741583
11
16.4039083
21
1.8512583
0
LINE
8
DEFAULT_255_2_778
10
16.4039167
20
3.1742
11
16.9331167
21
3.1742
0
LINE
8
DEFAULT_255_2_778
10
16.1393167
20
1.8513
11
16.6685167
21
1.8513
0
LINE
8
DEFAULT_255_2_778
10
17.4622333
20
3.1741583
11
18.5205333
21
2.5126583
0
LINE
8
DEFAULT_255_2_778
10
18.5205333
20
2.5126583
11
17.4622333
21
1.8512583
0
LINE
8
DEFAULT_255_2_778
10
21.9602083
20
3.1741583
11
21.6956083
21
1.8512583
0
LINE
8
DEFAULT_255_2_778
10
21.6956167
20
3.1742
11
22.2248167
21
3.1742
0
LINE
8
DEFAULT_255_2_778
10
21.4310167
20
1.8513
11
21.9602167
21
1.8513
0
LINE
8
DEFAULT_255_2_778
10
22.7539333
20
3.1741583
11
23.8122333
21
2.5126583
0
LINE
8
DEFAULT_255_2_778
10
23.8122333
20
2.5126583
11
22.7539333
21
1.8512583
0
LINE
8
DEFAULT_255_2_778_2
10
7.8065
20
7.8051656
11
7.8065
21
2.5132656
0
LINE
8
DEFAULT_255_1_234
10
9.6597137
20
14.6291433
11
9.6597137
21
13.4541
0
LINE
8
DEFAULT_255_1_234
10
9.6597137
20
13.4541
11
9.5103234
21
13.4541
0
LINE
8
DEFAULT_255_1_234
10
9.5103234
20
13.4541
11
9.5103234
21
14.4444133
0
LINE
8
DEFAULT_255_1_234
10
9.5103234
20
14.4444133
11
9.2107396
21
14.3343785
0
LINE
8
DEFAULT_255_1_234
10
9.2107396
20
14.3343785
11
9.2107396
21
14.4693117
0
LINE
8
DEFAULT_255_1_234
10
9.2107396
20
14.4693117
11
9.6364217
21
14.6291433
0
LINE
8
DEFAULT_255_1_234
10
9.6364217
20
14.6291433
11
9.6597137
21
14.6291433
0
LINE
8
DEFAULT_255_1_234
10
10.3110877
20
13.9898169
11
10.3110877
21
14.1110962
0
LINE
8
DEFAULT_255_1_234
10
10.3110877
20
14.1110962
11
10.4227289
21
14.1110962
0
LINE
8
DEFAULT_255_1_234
10
10.2323767
20
14.3167087
11
10.0837895
21
14.3167087
0
LINE
8
DEFAULT_255_1_234
10
10.0733482
20
13.7625188
11
10.2227386
21
13.7625188
0
LINE
8
DEFAULT_255_1_234
10
10.4227289
20
13.9898169
11
10.3110877
21
13.9898169
0
ARC
8
DEFAULT_255_1_234
10
10.4198155
20
14.4503713
40
0.3392876
50
270.4919872
51
281.8951556
0
ARC
8
DEFAULT_255_1_234
10
10.4439417
20
14.3401702
40
0.2264817
50
281.6691735
51
301.2943132
0
ARC
8
DEFAULT_255_1_234
10
10.4609627
20
14.3090304
40
0.1910381
50
301.7833094
51
311.7545298
0
ARC
8
DEFAULT_255_1_234
10
10.4701203
20
14.2988748
40
0.1773635
50
311.7323931
51
354.2802411
0
ARC
8
DEFAULT_255_1_234
10
10.3974828
20
14.3113722
40
0.2509385
50
353.0937916
51
0.1181479
0
ARC
8
DEFAULT_255_1_234
10
10.3513613
20
14.3161386
40
0.2970898
50
359.1805295
51
15.0453146
0
ARC
8
DEFAULT_255_1_234
10
10.485945
20
14.3553992
40
0.1569564
50
13.9577229
51
77.6713066
0
ARC
8
DEFAULT_255_1_234
10
10.4472979
20
14.2168949
40
0.3006298
50
76.1116566
51
90.7026153
0
ARC
8
DEFAULT_255_1_234
10
10.4413817
20
14.2442545
40
0.2732568
50
89.5324876
51
103.531937
0
ARC
8
DEFAULT_255_1_234
10
10.4213261
20
14.3241884
40
0.1908508
50
103.2931773
51
133.5619022
0
ARC
8
DEFAULT_255_1_234
10
10.416875
20
14.3301375
40
0.1834746
50
133.8349307
51
173.5344437
0
ARC
8
DEFAULT_255_1_234
10
10.4891793
20
14.3173213
40
0.2568033
50
172.5096846
51
180.1366907
0
ARC
8
DEFAULT_255_1_234
10
10.3940687
20
14.3207622
40
0.3103056
50
155.3484492
51
180.7484736
0
ARC
8
DEFAULT_255_1_234
10
10.3891776
20
14.3178846
40
0.3070957
50
131.5744599
51
154.4798489
0
ARC
8
DEFAULT_255_1_234
10
10.4204923
20
14.286231
40
0.3515643
50
96.9875458
51
131.9690667
0
ARC
8
DEFAULT_255_1_234
10
10.4424403
20
14.1616636
40
0.4779224
50
89.8596053
51
97.7825159
0
ARC
8
DEFAULT_255_1_234
10
10.4472466
20
14.1354616
40
0.5041361
50
78.3655447
51
90.4131539
0
ARC
8
DEFAULT_255_1_234
10
10.4830384
20
14.3013887
40
0.3344039
50
56.6229102
51
78.638727
0
ARC
8
DEFAULT_255_1_234
10
10.5045328
20
14.3389805
40
0.2912001
50
47.0253525
51
56.0854072
0
ARC
8
DEFAULT_255_1_234
10
10.5065108
20
14.3429223
40
0.2869704
50
10.9208013
51
46.7778124
0
ARC
8
DEFAULT_255_1_234
10
10.3701174
20
14.3113857
40
0.426899
50
359.6364486
51
11.6087304
0
ARC
8
DEFAULT_255_1_234
10
10.5536018
20
14.3098752
40
0.243409
50
332.3549906
51
359.7179418
0
ARC
8
DEFAULT_255_1_234
10
10.488562
20
14.3407142
40
0.3153459
50
325.2333722
51
332.8745602
0
ARC
8
DEFAULT_255_1_234
10
10.5038244
20
14.3300828
40
0.2967456
50
292.9802137
51
325.2392345
0
ARC
8
DEFAULT_255_1_234
10
10.4763617
20
14.3834863
40
0.3566604
50
292.5402179
51
293.6924929
0
ARC
8
DEFAULT_255_1_234
10
10.5156213
20
13.7380091
40
0.3307468
50
57.6435486
51
72.8625112
0
ARC
8
DEFAULT_255_1_234
10
10.5510713
20
13.7954549
40
0.2632492
50
36.7248896
51
57.4697979
0
ARC
8
DEFAULT_255_1_234
10
10.5499346
20
13.796722
40
0.2634081
50
8.0545065
51
36.356114
0
ARC
8
DEFAULT_255_1_234
10
10.4636531
20
13.7812174
40
0.3510261
50
359.8320645
51
8.5869982
0
ARC
8
DEFAULT_255_1_234
10
10.4261307
20
13.7764101
40
0.3885653
50
343.9829931
51
0.5571613
0
ARC
8
DEFAULT_255_1_234
10
10.5147504
20
13.7521438
40
0.2966924
50
311.6359546
51
343.7651759
0
ARC
8
DEFAULT_255_1_234
10
10.4769074
20
13.7948102
40
0.3537231
50
279.7829875
51
311.6255694
0
ARC
8
DEFAULT_255_1_234
10
10.446785
20
13.938528
40
0.5004971
50
269.7286406
51
280.3856417
0
ARC
8
DEFAULT_255_1_234
10
10.4405922
20
13.9343996
40
0.4963778
50
256.6828919
51
270.4412052
0
ARC
8
DEFAULT_255_1_234
10
10.4067218
20
13.7959394
40
0.3538406
50
229.4223008
51
256.8556159
0
ARC
8
DEFAULT_255_1_234
10
10.3652611
20
13.7492736
40
0.2914296
50
181.818294
51
229.6455059
0
ARC
8
DEFAULT_255_1_234
10
10.4692567
20
13.7623496
40
0.3959084
50
179.9755256
51
183.2323064
0
ARC
8
DEFAULT_255_1_234
10
10.4520313
20
13.7603037
40
0.2293034
50
179.4465117
51
196.2869258
0
ARC
8
DEFAULT_255_1_234
10
10.4032721
20
13.7469651
40
0.1787621
50
196.5661473
51
227.705904
0
ARC
8
DEFAULT_255_1_234
10
10.4196816
20
13.7653155
40
0.2033784
50
227.7652068
51
257.8762805
0
ARC
8
DEFAULT_255_1_234
10
10.4421786
20
13.8596156
40
0.3003081
50
257.4584385
51
270.426602
0
ARC
8
DEFAULT_255_1_234
10
10.4467352
20
13.8885996
40
0.329292
50
269.5962073
51
280.8789248
0
ARC
8
DEFAULT_255_1_234
10
10.4696881
20
13.7739685
40
0.2123908
50
280.6346389
51
299.8595945
0
ARC
8
DEFAULT_255_1_234
10
10.4887788
20
13.7377212
40
0.171457
50
300.3576302
51
314.5517981
0
ARC
8
DEFAULT_255_1_234
10
10.4804848
20
13.7437919
40
0.1816095
50
315.0728369
51
345.0431014
0
ARC
8
DEFAULT_255_1_234
10
10.3881662
20
13.7706841
40
0.2777492
50
344.5986631
51
357.9269593
0
ARC
8
DEFAULT_255_1_234
10
10.2985989
20
13.7768276
40
0.3674917
50
357.4748886
51
0.0231117
0
ARC
8
DEFAULT_255_1_234
10
10.4009098
20
13.7792679
40
0.2651907
50
359.5047933
51
13.4239635
0
ARC
8
DEFAULT_255_1_234
10
10.4875741
20
13.8014478
40
0.1757509
50
12.9498199
51
48.7551375
0
ARC
8
DEFAULT_255_1_234
10
10.4693475
20
13.77654
40
0.2065134
50
49.5088623
51
72.1836453
0
ARC
8
DEFAULT_255_1_234
10
10.4335628
20
13.6703291
40
0.3185836
50
71.9010081
51
84.3554254
0
ARC
8
DEFAULT_255_1_234
10
10.417426
20
13.5342326
40
0.4556151
50
84.0193428
51
89.333121
0
LINE
8
DEFAULT_255_1_234
10
11.2058233
20
14.0098963
11
11.0869536
21
14.0404169
0
LINE
8
DEFAULT_255_1_234
10
11.0869536
20
14.0404169
11
11.1463885
21
14.6235211
0
LINE
8
DEFAULT_255_1_234
10
11.1463885
20
14.6235211
11
11.7455562
21
14.6235211
0
LINE
8
DEFAULT_255_1_234
10
11.7455562
20
14.6235211
11
11.7455562
21
14.4861784
0
LINE
8
DEFAULT_255_1_234
10
11.7455562
20
14.4861784
11
11.2724868
21
14.4861784
0
LINE
8
DEFAULT_255_1_234
10
11.2724868
20
14.4861784
11
11.2371471
21
14.1673184
0
LINE
8
DEFAULT_255_1_234
10
11.0451886
20
13.7617156
11
11.185744
21
13.7617156
0
LINE
8
DEFAULT_255_1_234
10
11.2451789
20
14.0420232
11
11.2058233
21
14.0098963
0
ARC
8
DEFAULT_255_1_234
10
11.4226255
20
13.849323
40
0.3681349
50
93.7182161
51
120.2538958
0
ARC
8
DEFAULT_255_1_234
10
11.4320518
20
13.7685394
40
0.449379
50
89.9660152
51
94.2496022
0
ARC
8
DEFAULT_255_1_234
10
11.4361252
20
13.8274549
40
0.390482
50
73.8043271
51
90.5585896
0
ARC
8
DEFAULT_255_1_234
10
11.4596149
20
13.9132602
40
0.3015334
50
41.3071453
51
73.5430202
0
ARC
8
DEFAULT_255_1_234
10
11.4179976
20
13.8774324
40
0.3564457
50
13.5075983
51
41.2174222
0
ARC
8
DEFAULT_255_1_234
10
11.253818
20
13.8344486
40
0.5261351
50
1.1331335
51
13.8829381
0
ARC
8
DEFAULT_255_1_234
10
11.1126549
20
13.8268665
40
0.6674378
50
359.9919444
51
1.544251
0
ARC
8
DEFAULT_255_1_234
10
11.2403375
20
13.822728
40
0.5397702
50
347.8572367
51
0.4293338
0
ARC
8
DEFAULT_255_1_234
10
11.4153693
20
13.7830736
40
0.3603188
50
323.673004
51
348.1672506
0
ARC
8
DEFAULT_255_1_234
10
11.4448201
20
13.7651168
40
0.3259678
50
316.8171152
51
323.1492751
0
ARC
8
DEFAULT_255_1_234
10
11.450939
20
13.761446
40
0.3189975
50
281.8396411
51
316.5457803
0
ARC
8
DEFAULT_255_1_234
10
11.4133654
20
13.9169762
40
0.4789527
50
269.5770101
51
282.4214771
0
ARC
8
DEFAULT_255_1_234
10
11.4062465
20
13.8956125
40
0.45759
50
256.2427136
51
270.4486331
0
ARC
8
DEFAULT_255_1_234
10
11.3763368
20
13.7756229
40
0.3339303
50
228.9023911
51
256.3314342
0
ARC
8
DEFAULT_255_1_234
10
11.36896
20
13.7639746
40
0.32031
50
193.753695
51
228.5271154
0
ARC
8
DEFAULT_255_1_234
10
11.4927554
20
13.80028
40
0.4492253
50
184.924711
51
194.497588
0
ARC
8
DEFAULT_255_1_234
10
11.5120121
20
13.8038591
40
0.3289787
50
187.3600538
51
198.6732863
0
ARC
8
DEFAULT_255_1_234
10
11.4070415
20
13.7674674
40
0.217884
50
198.4451669
51
217.794479
0
ARC
8
DEFAULT_255_1_234
10
11.377459
20
13.7465085
40
0.1816698
50
218.2887171
51
228.5612368
0
ARC
8
DEFAULT_255_1_234
10
11.3872377
20
13.7596963
40
0.1980329
50
228.9654866
51
258.1234728
0
ARC
8
DEFAULT_255_1_234
10
11.4078087
20
13.8477833
40
0.2884748
50
257.7258293
51
270.401361
0
ARC
8
DEFAULT_255_1_234
10
11.4122974
20
13.8032821
40
0.2439788
50
269.4204404
51
286.4209037
0
ARC
8
DEFAULT_255_1_234
10
11.4271461
20
13.7493657
40
0.1880666
50
286.7251356
51
320.600362
0
ARC
8
DEFAULT_255_1_234
10
11.3888286
20
13.7804595
40
0.2374121
50
320.6712579
51
344.5441685
0
ARC
8
DEFAULT_255_1_234
10
11.2731612
20
13.8144045
40
0.3579479
50
344.2412205
51
356.7357071
0
ARC
8
DEFAULT_255_1_234
10
11.1482761
20
13.8247444
40
0.4832297
50
356.3548756
51
0.0500261
0
ARC
8
DEFAULT_255_1_234
10
11.281927
20
13.827865
40
0.3495889
50
359.5576869
51
12.953486
0
ARC
8
DEFAULT_255_1_234
10
11.3874167
20
13.8534434
40
0.2410532
50
12.6490276
51
41.6081334
0
ARC
8
DEFAULT_255_1_234
10
11.4104538
20
13.8730321
40
0.2108218
50
41.7850273
51
85.9892764
0
ARC
8
DEFAULT_255_1_234
10
11.3981275
20
13.7917462
40
0.2928454
50
84.6957577
51
90.0676183
0
ARC
8
DEFAULT_255_1_234
10
11.3957759
20
13.7248716
40
0.3597255
50
89.6804936
51
99.1614436
0
ARC
8
DEFAULT_255_1_234
10
11.375239
20
13.8476131
40
0.235281
50
98.9830931
51
113.8908934
0
ARC
8
DEFAULT_255_1_234
10
11.35228
20
13.9017587
40
0.176479
50
114.1950727
51
127.3641004
0
LINE
8
DEFAULT_255_1_234
10
10.1410119
20
-1.7212208
11
10.1410119
21
-1.8425
0
LINE
8
DEFAULT_255_1_234
10
10.1410119
20
-1.8425
11
9.374784
21
-1.8425
0
LINE
8
DEFAULT_255_1_234
10
9.374784
20
-1.8425
11
9.374784
21
-1.7356779
0
LINE
8
DEFAULT_255_1_234
10
9.374784
20
-1.7356779
11
9.7795836
21
-1.2859005
0
LINE
8
DEFAULT_255_1_234
10
9.5008823
20
-1.0176405
11
9.3522952
21
-1.0176405
0
LINE
8
DEFAULT_255_1_234
10
9.8671296
20
-1.3814782
11
9.5538918
21
-1.7212208
0
LINE
8
DEFAULT_255_1_234
10
9.5538918
20
-1.7212208
11
10.1410119
21
-1.7212208
0
ARC
8
DEFAULT_255_1_234
10
8.430567
20
-0.0929473
40
1.8008286
50
318.5132453
51
320.7828378
0
ARC
8
DEFAULT_255_1_234
10
8.9592644
20
-0.5232574
40
1.1191493
50
320.7372736
51
323.9737074
0
ARC
8
DEFAULT_255_1_234
10
9.3512501
20
-0.8072639
40
0.6350923
50
323.8961724
51
328.6421089
0
ARC
8
DEFAULT_255_1_234
10
9.5559096
20
-0.9334969
40
0.3946393
50
328.8299013
51
331.789948
0
ARC
8
DEFAULT_255_1_234
10
9.6556274
20
-0.9849491
40
0.2824501
50
331.4255242
51
352.9364833
0
ARC
8
DEFAULT_255_1_234
10
9.6692775
20
-0.9880024
40
0.2685315
50
353.2248685
51
0.0169286
0
ARC
8
DEFAULT_255_1_234
10
9.6902652
20
-0.985705
40
0.2475536
50
359.4866256
51
15.9339782
0
ARC
8
DEFAULT_255_1_234
10
9.7409637
20
-0.9720714
40
0.1950618
50
16.1714718
51
43.5284424
0
ARC
8
DEFAULT_255_1_234
10
9.7486946
20
-0.9643427
40
0.184134
50
43.4415429
51
83.1661404
0
ARC
8
DEFAULT_255_1_234
10
9.7352864
20
-1.0380229
40
0.258926
50
82.160215
51
90.1505798
0
ARC
8
DEFAULT_255_1_234
10
9.7321291
20
-1.0917135
40
0.3126255
50
89.5460705
51
102.5418777
0
ARC
8
DEFAULT_255_1_234
10
9.7078377
20
-0.9886335
40
0.2067346
50
102.1739365
51
129.2061916
0
ARC
8
DEFAULT_255_1_234
10
9.6999449
20
-0.9761906
40
0.1921118
50
129.7279328
51
135.7542026
0
ARC
8
DEFAULT_255_1_234
10
9.7120977
20
-0.9858955
40
0.2075944
50
136.175737
51
166.3674722
0
ARC
8
DEFAULT_255_1_234
10
9.8127896
20
-1.0128818
40
0.3118201
50
165.9092917
51
178.8683903
0
ARC
8
DEFAULT_255_1_234
10
9.8992757
20
-1.0175821
40
0.3983935
50
178.438168
51
180.0083905
0
ARC
8
DEFAULT_255_1_234
10
9.7591359
20
-1.0136769
40
0.4068601
50
163.2878735
51
180.5581814
0
ARC
8
DEFAULT_255_1_234
10
9.6789621
20
-0.991616
40
0.3237344
50
133.454115
51
162.9470031
0
ARC
8
DEFAULT_255_1_234
10
9.6968162
20
-1.0106
40
0.349795
50
100.7869394
51
133.4384016
0
ARC
8
DEFAULT_255_1_234
10
9.7315934
20
-1.1654681
40
0.5084616
50
89.6605301
51
101.3704185
0
ARC
8
DEFAULT_255_1_234
10
9.7382273
20
-1.1593504
40
0.502348
50
78.2171172
51
90.4130393
0
ARC
8
DEFAULT_255_1_234
10
9.7737351
20
-0.9969363
40
0.3361092
50
55.9268222
51
78.4888551
0
ARC
8
DEFAULT_255_1_234
10
9.7933791
20
-0.9630676
40
0.2970617
50
47.9292255
51
55.4054003
0
ARC
8
DEFAULT_255_1_234
10
9.8035352
20
-0.9527498
40
0.2825983
50
4.3347696
51
48.0560701
0
ARC
8
DEFAULT_255_1_234
10
9.6939745
20
-0.9697399
40
0.393225
50
359.925209
51
5.5967654
0
ARC
8
DEFAULT_255_1_234
10
9.7368637
20
-0.9641184
40
0.3503892
50
337.8914096
51
358.9967724
0
ARC
8
DEFAULT_255_1_234
10
9.4655049
20
-0.8594294
40
0.6412172
50
326.9135351
51
338.3505194
0
ARC
8
DEFAULT_255_1_234
10
9.0669353
20
-0.6039716
40
1.1146189
50
319.6472867
51
327.095818
0
ARC
8
DEFAULT_255_1_234
10
8.6836356
20
-0.2878
40
1.6114559
50
317.2586784
51
319.9046139
0
LINE
8
DEFAULT_255_1_234
10
10.9257127
20
-0.6730789
11
10.9257127
21
-1.449748
0
LINE
8
DEFAULT_255_1_234
10
10.9257127
20
-1.449748
11
11.0879538
21
-1.449748
0
LINE
8
DEFAULT_255_1_234
10
11.0879538
20
-1.449748
11
11.0879538
21
-1.5710272
0
LINE
8
DEFAULT_255_1_234
10
11.0879538
20
-1.5710272
11
10.9257127
21
-1.5710272
0
LINE
8
DEFAULT_255_1_234
10
10.9257127
20
-1.5710272
11
10.9257127
21
-1.8425
0
LINE
8
DEFAULT_255_1_234
10
10.9257127
20
-1.8425
11
10.7763224
21
-1.8425
0
LINE
8
DEFAULT_255_1_234
10
10.7763224
20
-1.8425
11
10.7763224
21
-1.5710272
0
LINE
8
DEFAULT_255_1_234
10
10.7763224
20
-1.5710272
11
10.2438181
21
-1.5710272
0
LINE
8
DEFAULT_255_1_234
10
10.2438181
20
-1.5710272
11
10.2438181
21
-1.4834813
0
LINE
8
DEFAULT_255_1_234
10
10.2438181
20
-1.4834813
11
10.7674875
21
-0.6730789
0
LINE
8
DEFAULT_255_1_234
10
10.7674875
20
-0.6730789
11
10.9257127
21
-0.6730789
0
LINE
8
DEFAULT_255_1_234
10
10.7586525
20
-0.9084088
11
10.4124846
21
-1.449748
0
LINE
8
DEFAULT_255_1_234
10
10.4124846
20
-1.449748
11
10.7763224
21
-1.449748
0
LINE
8
DEFAULT_255_1_234
10
10.7763224
20
-1.449748
11
10.7763224
21
-0.8762819
0
LINE
8
DEFAULT_255_1_234
10
10.7763224
20
-0.8762819
11
10.7586525
21
-0.9084088
0
LINE
8
DEFAULT_255_1_234
10
11.7786833
20
-0.6722757
11
11.805188
21
-0.6722757
0
LINE
8
DEFAULT_255_1_234
10
11.805188
20
-0.6722757
11
11.805188
21
-0.798374
0
LINE
8
DEFAULT_255_1_234
10
11.805188
20
-0.798374
11
11.7778801
21
-0.798374
0
LINE
8
DEFAULT_255_1_234
10
11.2309188
20
-1.3975417
11
11.2309188
21
-1.3405164
0
LINE
8
DEFAULT_255_1_234
10
11.3803091
20
-1.3597925
11
11.3803091
21
-1.4144083
0
ARC
8
DEFAULT_255_1_234
10
11.7831149
20
-1.2981545
40
0.4998079
50
90.6001036
51
104.514704
0
ARC
8
DEFAULT_255_1_234
10
11.7442665
20
-1.1536869
40
0.3502176
50
104.2855254
51
133.862935
0
ARC
8
DEFAULT_255_1_234
10
11.7606422
20
-1.164517
40
0.3693984
50
134.5302688
51
161.6210873
0
ARC
8
DEFAULT_255_1_234
10
11.9259611
20
-1.2228105
40
0.5446739
50
161.2849839
51
174.2076652
0
ARC
8
DEFAULT_255_1_234
10
12.0666548
20
-1.2422213
40
0.6866274
50
173.7810589
51
174.9254635
0
ARC
8
DEFAULT_255_1_234
10
11.611638
20
-1.3805161
40
0.3033419
50
95.8330959
51
138.9954921
0
ARC
8
DEFAULT_255_1_234
10
11.6339736
20
-1.5083625
40
0.4328947
50
89.8753725
51
97.0544009
0
ARC
8
DEFAULT_255_1_234
10
11.6387202
20
-1.4248252
40
0.3493769
50
71.6407809
51
90.6240094
0
ARC
8
DEFAULT_255_1_234
10
11.6537775
20
-1.3693918
40
0.2920396
50
39.6367836
51
71.019018
0
ARC
8
DEFAULT_255_1_234
10
11.5901248
20
-1.4244002
40
0.3761538
50
10.658731
51
39.9043955
0
ARC
8
DEFAULT_255_1_234
10
11.4353331
20
-1.4580314
40
0.5345136
50
359.682601
51
11.132623
0
ARC
8
DEFAULT_255_1_234
10
11.4313462
20
-1.465099
40
0.5385081
50
347.2486944
51
0.4369317
0
ARC
8
DEFAULT_255_1_234
10
11.5980939
20
-1.5052193
40
0.3670249
50
318.1409698
51
347.6118597
0
ARC
8
DEFAULT_255_1_234
10
11.6305932
20
-1.5319298
40
0.3250007
50
275.6342139
51
317.8248465
0
ARC
8
DEFAULT_255_1_234
10
11.6085043
20
-1.4019781
40
0.4565864
50
269.8874292
51
276.7917694
0
ARC
8
DEFAULT_255_1_234
10
11.6030114
20
-1.5045257
40
0.3540676
50
246.9140195
51
270.7437342
0
ARC
8
DEFAULT_255_1_234
10
11.6036504
20
-1.5187616
40
0.3412781
50
218.1665114
51
245.878116
0
ARC
8
DEFAULT_255_1_234
10
11.6915965
20
-1.4451721
40
0.455911
50
191.4115814
51
218.6077802
0
ARC
8
DEFAULT_255_1_234
10
11.8854054
20
-1.4017167
40
0.6545001
50
179.6345085
51
191.7836486
0
ARC
8
DEFAULT_255_1_234
10
12.4436391
20
-1.3338303
40
1.2127388
50
171.4525249
51
180.3158839
0
ARC
8
DEFAULT_255_1_234
10
12.0041267
20
-1.2654392
40
0.7679464
50
157.9802646
51
171.6246686
0
ARC
8
DEFAULT_255_1_234
10
11.7827288
20
-1.1771579
40
0.5296008
50
141.4298019
51
157.854097
0
ARC
8
DEFAULT_255_1_234
10
11.7185608
20
-1.1317619
40
0.4511509
50
102.8715806
51
140.8564722
0
ARC
8
DEFAULT_255_1_234
10
11.7833224
20
-1.3757448
40
0.7034845
50
90.3778349
51
103.5869322
0
ARC
8
DEFAULT_255_1_234
10
11.6095
20
-1.436227
40
0.2370698
50
89.8751008
51
126.2071704
0
ARC
8
DEFAULT_255_1_234
10
11.614079
20
-1.4516697
40
0.2522934
50
124.9745049
51
144.895901
0
ARC
8
DEFAULT_255_1_234
10
11.596498
20
-1.437344
40
0.2296779
50
145.2974905
51
160.2660252
0
ARC
8
DEFAULT_255_1_234
10
11.9037519
20
-1.4175929
40
0.5234525
50
179.6514266
51
190.2855912
0
ARC
8
DEFAULT_255_1_234
10
11.7343656
20
-1.4495214
40
0.3510893
50
190.0945431
51
207.5098196
0
ARC
8
DEFAULT_255_1_234
10
11.6777926
20
-1.4764377
40
0.288489
50
207.9583163
51
216.3251085
0
ARC
8
DEFAULT_255_1_234
10
11.6438034
20
-1.5043895
40
0.2445587
50
215.7661442
51
232.5456785
0
ARC
8
DEFAULT_255_1_234
10
11.6055017
20
-1.5530518
40
0.1826382
50
232.8005391
51
270.6605633
0
ARC
8
DEFAULT_255_1_234
10
11.6100718
20
-1.5166388
40
0.2190529
50
269.35537
51
288.4744281
0
ARC
8
DEFAULT_255_1_234
10
11.6193615
20
-1.5515882
40
0.1829749
50
289.1833337
51
322.9683818
0
ARC
8
DEFAULT_255_1_234
10
11.5582137
20
-1.5033609
40
0.2608399
50
322.6007884
51
346.5182367
0
ARC
8
DEFAULT_255_1_234
10
11.4424733
20
-1.4738384
40
0.3802777
50
346.2582162
51
358.7741648
0
ARC
8
DEFAULT_255_1_234
10
11.3406402
20
-1.4683035
40
0.4822176
50
358.3755224
51
0.0098023
0
ARC
8
DEFAULT_255_1_234
10
11.4162589
20
-1.4655343
40
0.4066078
50
359.6214041
51
11.2839074
0
ARC
8
DEFAULT_255_1_234
10
11.5439736
20
-1.4388934
40
0.2761514
50
11.0482309
51
31.8146458
0
ARC
8
DEFAULT_255_1_234
10
11.5748779
20
-1.4221416
40
0.2410679
50
32.3035391
51
38.082671
0
ARC
8
DEFAULT_255_1_234
10
11.6169439
20
-1.3840338
40
0.1844966
50
36.825067
51
85.7415724
0
ARC
8
DEFAULT_255_1_234
10
11.6102272
20
-1.4340699
40
0.2349122
50
85.0140713
51
90.0513278
0
ENDSEC
0
EOF