0
SECTION
2
HEADER
9
$MEASUREMENT
70
1
0
ENDSEC
0
SECTION
2
TABLES
0
TABLE
2
LTYPE
0
LTYPE
72
65
70
64
2
CONTINUOUS
3
______
73
0
40
0
0
ENDTAB
0
TABLE
2
LAYER
0
LAYER
2
DEFAULT_255_1_388
70
0
62
255
6
CONTINUOUS
0
LAYER
2
DEFAULT_255_2_778
70
0
62
255
6
CONTINUOUS
0
LAYER
2
DEFAULT_255_2_778_3
70
0
62
255
6
CONTINUOUS
0
ENDTAB
0
ENDSEC
0
SECTION
2
ENTITIES
0
LINE
8
DEFAULT_255_1_388
10
7.3771985
20
9.4954148
11
7.3771985
21
8.1735
0
LINE
8
DEFAULT_255_1_388
10
7.3771985
20
8.1735
11
7.2091355
21
8.1735
0
LINE
8
DEFAULT_255_1_388
10
7.2091355
20
8.1735
11
7.2091355
21
9.287595
0
LINE
8
DEFAULT_255_1_388
10
7.2091355
20
9.287595
11
6.872106
21
9.1638066
0
LINE
8
DEFAULT_255_1_388
10
6.872106
20
9.1638066
11
6.872106
21
9.3156055
0
LINE
8
DEFAULT_255_1_388
10
6.872106
20
9.3156055
11
7.3509951
21
9.4954148
0
LINE
8
DEFAULT_255_1_388
10
7.3509951
20
9.4954148
11
7.3771985
21
9.4954148
0
LINE
8
DEFAULT_255_1_388
10
8.1099893
20
8.7761775
11
8.1099893
21
8.9126157
0
LINE
8
DEFAULT_255_1_388
10
8.1099893
20
8.9126157
11
8.2355847
21
8.9126157
0
LINE
8
DEFAULT_255_1_388
10
8.0214399
20
9.1439282
11
7.8542805
21
9.1439282
0
LINE
8
DEFAULT_255_1_388
10
7.8425342
20
8.5204688
11
8.0105972
21
8.5204688
0
LINE
8
DEFAULT_255_1_388
10
8.2355847
20
8.7761775
11
8.1099893
21
8.7761775
0
ARC
8
DEFAULT_255_1_388
10
8.2323074
20
9.2942922
40
0.3816905
50
270.491971
51
281.8953028
0
ARC
8
DEFAULT_255_1_388
10
8.2594501
20
9.1703199
40
0.2547877
50
281.6690378
51
301.2943765
0
ARC
8
DEFAULT_255_1_388
10
8.2785952
20
9.1352926
40
0.2149197
50
301.7834992
51
311.754567
0
ARC
8
DEFAULT_255_1_388
10
8.2888993
20
9.123865
40
0.1995326
50
311.7325027
51
354.2803031
0
ARC
8
DEFAULT_255_1_388
10
8.2071409
20
9.137928
40
0.2823461
50
353.0941646
51
0.1174696
0
ARC
8
DEFAULT_255_1_388
10
8.1552967
20
9.1432874
40
0.3342238
50
359.1804452
51
15.0452323
0
ARC
8
DEFAULT_255_1_388
10
8.3067026
20
9.1874546
40
0.1765747
50
13.957816
51
77.6713812
0
ARC
8
DEFAULT_255_1_388
10
8.2632261
20
9.0316464
40
0.3381982
50
76.111571
51
90.7028736
0
ARC
8
DEFAULT_255_1_388
10
8.2565673
20
9.062425
40
0.3074046
50
89.5321574
51
103.5319393
0
ARC
8
DEFAULT_255_1_388
10
8.2340057
20
9.1523443
40
0.2147041
50
103.2930114
51
133.5619756
0
ARC
8
DEFAULT_255_1_388
10
8.2289999
20
9.1590351
40
0.2064084
50
133.8349761
51
173.5343225
0
ARC
8
DEFAULT_255_1_388
10
8.3103656
20
9.1446144
40
0.2889266
50
172.5097183
51
180.1360699
0
ARC
8
DEFAULT_255_1_388
10
8.203342
20
9.148488
40
0.3490913
50
155.3483706
51
180.7484035
0
ARC
8
DEFAULT_255_1_388
10
8.1978396
20
9.1452519
40
0.3454798
50
131.5745177
51
154.4799474
0
ARC
8
DEFAULT_255_1_388
10
8.2330678
20
9.1096422
40
0.3955058
50
96.9874487
51
131.9690874
0
ARC
8
DEFAULT_255_1_388
10
8.2577571
20
8.9695407
40
0.537622
50
89.8592909
51
97.7827481
0
ARC
8
DEFAULT_255_1_388
10
8.263168
20
8.940036
40
0.5671399
50
78.3654493
51
90.4132586
0
ARC
8
DEFAULT_255_1_388
10
8.3034321
20
9.1266918
40
0.3762034
50
56.6229818
51
78.6387103
0
ARC
8
DEFAULT_255_1_388
10
8.327615
20
9.1689846
40
0.3275964
50
47.0254604
51
56.085558
0
ARC
8
DEFAULT_255_1_388
10
8.3298401
20
9.1734189
40
0.3228382
50
10.9207523
51
46.777927
0
ARC
8
DEFAULT_255_1_388
10
8.1763995
20
9.1379401
40
0.4802559
50
359.6364235
51
11.6087615
0
ARC
8
DEFAULT_255_1_388
10
8.3828161
20
9.1362404
40
0.273833
50
332.3549969
51
359.7179765
0
ARC
8
DEFAULT_255_1_388
10
8.3096562
20
9.1709285
40
0.3547505
50
325.2332381
51
332.8746682
0
ARC
8
DEFAULT_255_1_388
10
8.3268144
20
9.1589763
40
0.3338396
50
292.9803892
51
325.2391113
0
ARC
8
DEFAULT_255_1_388
10
8.295734
20
9.2194679
40
0.4016959
50
292.542178
51
293.6931461
0
ARC
8
DEFAULT_255_1_388
10
8.3400912
20
8.4929036
40
0.372079
50
57.643292
51
72.8626085
0
ARC
8
DEFAULT_255_1_388
10
8.3799747
20
8.5575273
40
0.2961455
50
36.7246661
51
57.4701329
0
ARC
8
DEFAULT_255_1_388
10
8.3786903
20
8.558947
40
0.2963321
50
8.054535
51
36.3561529
0
ARC
8
DEFAULT_255_1_388
10
8.2816576
20
8.5415073
40
0.3948682
50
359.8316595
51
8.5873361
0
ARC
8
DEFAULT_255_1_388
10
8.239405
20
8.536097
40
0.4371398
50
343.9831631
51
0.557075
0
ARC
8
DEFAULT_255_1_388
10
8.33911
20
8.5087963
40
0.3337749
50
311.6358204
51
343.7652116
0
ARC
8
DEFAULT_255_1_388
10
8.2965353
20
8.5567955
40
0.3979351
50
279.7829743
51
311.625622
0
ARC
8
DEFAULT_255_1_388
10
8.2626489
20
8.7184642
40
0.5630417
50
269.7285092
51
280.3857694
0
ARC
8
DEFAULT_255_1_388
10
8.2556802
20
8.7138241
40
0.5584119
50
256.6827433
51
270.4412869
0
ARC
8
DEFAULT_255_1_388
10
8.2175788
20
8.5580698
40
0.3980715
50
229.4223821
51
256.8554507
0
ARC
8
DEFAULT_255_1_388
10
8.1709342
20
8.5055683
40
0.3278564
50
181.8183354
51
229.6455015
0
ARC
8
DEFAULT_255_1_388
10
8.2878951
20
8.5202825
40
0.4453611
50
179.9760419
51
183.2330638
0
ARC
8
DEFAULT_255_1_388
10
8.2685503
20
8.5179781
40
0.2579652
50
179.4467996
51
196.2871626
0
ARC
8
DEFAULT_255_1_388
10
8.2136957
20
8.5029709
40
0.2011057
50
196.5661293
51
227.7059371
0
ARC
8
DEFAULT_255_1_388
10
8.2321564
20
8.5236155
40
0.2287994
50
227.7653015
51
257.8763321
0
ARC
8
DEFAULT_255_1_388
10
8.2574647
20
8.6296961
40
0.3378385
50
257.4583525
51
270.4267406
0
ARC
8
DEFAULT_255_1_388
10
8.2625897
20
8.662323
40
0.3704652
50
269.5965319
51
280.8788143
0
ARC
8
DEFAULT_255_1_388
10
8.2884125
20
8.5333529
40
0.2389415
50
280.6347277
51
299.8594068
0
ARC
8
DEFAULT_255_1_388
10
8.3098895
20
8.4925736
40
0.19289
50
300.3575552
51
314.5515667
0
ARC
8
DEFAULT_255_1_388
10
8.300557
20
8.4994025
40
0.204312
50
315.0730962
51
345.0429362
0
ARC
8
DEFAULT_255_1_388
10
8.1967078
20
8.5296539
40
0.31246
50
344.598526
51
357.9270698
0
ARC
8
DEFAULT_255_1_388
10
8.0957383
20
8.5365705
40
0.4136265
50
357.4755098
51
0.0224936
0
ARC
8
DEFAULT_255_1_388
10
8.211026
20
8.5393099
40
0.2983498
50
359.5051035
51
13.4236939
0
ARC
8
DEFAULT_255_1_388
10
8.308535
20
8.5642637
40
0.1977186
50
12.9497905
51
48.7550905
0
ARC
8
DEFAULT_255_1_388
10
8.2880272
20
8.5362373
40
0.2323321
50
49.509109
51
72.1832965
0
ARC
8
DEFAULT_255_1_388
10
8.247774
20
8.4167632
40
0.358397
50
71.9008458
51
84.3555134
0
ARC
8
DEFAULT_255_1_388
10
8.2296135
20
8.2635712
40
0.512641
50
84.019632
51
89.3326067
0
LINE
8
DEFAULT_255_1_388
10
9.1165601
20
8.7987666
11
8.9828325
21
8.8331021
0
LINE
8
DEFAULT_255_1_388
10
8.9828325
20
8.8331021
11
9.0496963
21
9.4890898
0
LINE
8
DEFAULT_255_1_388
10
9.0496963
20
9.4890898
11
9.7237554
21
9.4890898
0
LINE
8
DEFAULT_255_1_388
10
9.7237554
20
9.4890898
11
9.7237554
21
9.3345803
0
LINE
8
DEFAULT_255_1_388
10
9.7237554
20
9.3345803
11
9.1915559
21
9.3345803
0
LINE
8
DEFAULT_255_1_388
10
9.1915559
20
9.3345803
11
9.1517991
21
8.9758652
0
LINE
8
DEFAULT_255_1_388
10
8.9358472
20
8.5195652
11
9.0939709
21
8.5195652
0
LINE
8
DEFAULT_255_1_388
10
9.1608347
20
8.8349092
11
9.1165601
21
8.7987666
0
ARC
8
DEFAULT_255_1_388
10
9.3604604
20
8.6181241
40
0.4141476
50
93.7181681
51
120.253934
0
ARC
8
DEFAULT_255_1_388
10
9.3710656
20
8.5272284
40
0.5055616
50
89.9660471
51
94.2495185
0
ARC
8
DEFAULT_255_1_388
10
9.3756478
20
8.5935154
40
0.4392953
50
73.8045384
51
90.5585736
0
ARC
8
DEFAULT_255_1_388
10
9.4020736
20
8.690052
40
0.3392225
50
41.3071072
51
73.543002
0
ARC
8
DEFAULT_255_1_388
10
9.3552556
20
8.6497461
40
0.4009977
50
13.5075837
51
41.2174839
0
ARC
8
DEFAULT_255_1_388
10
9.1705653
20
8.6013907
40
0.5918864
50
1.1330171
51
13.8830737
0
ARC
8
DEFAULT_255_1_388
10
9.0109299
20
8.5928522
40
0.7516787
50
359.9925091
51
1.5431298
0
ARC
8
DEFAULT_255_1_388
10
9.1553914
20
8.5882027
40
0.6072343
50
347.8572712
51
0.4294349
0
ARC
8
DEFAULT_255_1_388
10
9.3523049
20
8.5435898
40
0.4053482
50
323.6727442
51
348.1674594
0
ARC
8
DEFAULT_255_1_388
10
9.3854013
20
8.5234175
40
0.3667495
50
316.8171818
51
323.1486802
0
ARC
8
DEFAULT_255_1_388
10
9.3923137
20
8.5192612
40
0.358869
50
281.839603
51
316.5458142
0
ARC
8
DEFAULT_255_1_388
10
9.3500425
20
8.6942363
40
0.5388223
50
269.5770964
51
282.4214641
0
ARC
8
DEFAULT_255_1_388
10
9.3420345
20
8.670193
40
0.5147801
50
256.2425863
51
270.4486481
0
ARC
8
DEFAULT_255_1_388
10
9.3083873
20
8.5352124
40
0.3756708
50
228.9024379
51
256.33135
0
ARC
8
DEFAULT_255_1_388
10
9.3000853
20
8.5221054
40
0.360344
50
193.7536029
51
228.5272638
0
ARC
8
DEFAULT_255_1_388
10
9.4393418
20
8.5629463
40
0.5053599
50
184.9244437
51
194.4976052
0
ARC
8
DEFAULT_255_1_388
10
9.461006
20
8.5669722
40
0.3700839
50
187.3596909
51
198.6733728
0
ARC
8
DEFAULT_255_1_388
10
9.3429303
20
8.5260373
40
0.2451195
50
198.4453795
51
217.7945479
0
ARC
8
DEFAULT_255_1_388
10
9.3096476
20
8.5024563
40
0.2043754
50
218.2887146
51
228.5613203
0
ARC
8
DEFAULT_255_1_388
10
9.3206482
20
8.5172902
40
0.2227819
50
228.9652423
51
258.1237049
0
ARC
8
DEFAULT_255_1_388
10
9.343792
20
8.6163964
40
0.3245374
50
257.7260585
51
270.4013717
0
ARC
8
DEFAULT_255_1_388
10
9.3488418
20
8.5663255
40
0.2744726
50
269.4204315
51
286.420998
0
ARC
8
DEFAULT_255_1_388
10
9.3655474
20
8.5056705
40
0.2115721
50
286.7250065
51
320.6004665
0
ARC
8
DEFAULT_255_1_388
10
9.3224389
20
8.5406527
40
0.2670878
50
320.6712228
51
344.5440474
0
ARC
8
DEFAULT_255_1_388
10
9.1923103
20
8.5788394
40
0.4026927
50
344.241448
51
356.735803
0
ARC
8
DEFAULT_255_1_388
10
9.051941
20
8.5904656
40
0.5435085
50
356.3547471
51
0.0507222
0
ARC
8
DEFAULT_255_1_388
10
9.2021675
20
8.5939812
40
0.3932934
50
359.5579289
51
12.9534322
0
ARC
8
DEFAULT_255_1_388
10
9.3208515
20
8.6227586
40
0.2711827
50
12.6489751
51
41.608121
0
ARC
8
DEFAULT_255_1_388
10
9.3467675
20
8.6447946
40
0.2371737
50
41.7851122
51
85.9892156
0
ARC
8
DEFAULT_255_1_388
10
9.3328985
20
8.5532738
40
0.3295244
50
84.6965848
51
90.0672125
0
ARC
8
DEFAULT_255_1_388
10
9.3302553
20
8.4781118
40
0.4046926
50
89.6804991
51
99.161352
0
ARC
8
DEFAULT_255_1_388
10
9.3071562
20
8.6161848
40
0.2647044
50
98.9836248
51
113.8905702
0
ARC
8
DEFAULT_255_1_388
10
9.2813237
20
8.6771118
40
0.1985386
50
114.195234
51
127.3641866
0
LINE
8
DEFAULT_255_1_388
10
7.9461318
20
-1.6939618
11
7.9461318
21
-1.8304
0
LINE
8
DEFAULT_255_1_388
10
7.9461318
20
-1.8304
11
7.0841313
21
-1.8304
0
LINE
8
DEFAULT_255_1_388
10
7.0841313
20
-1.8304
11
7.0841313
21
-1.7102259
0
LINE
8
DEFAULT_255_1_388
10
7.0841313
20
-1.7102259
11
7.5395278
21
-1.2042298
0
LINE
8
DEFAULT_255_1_388
10
7.2259909
20
-0.9024393
11
7.0588315
21
-0.9024393
0
LINE
8
DEFAULT_255_1_388
10
7.6380163
20
-1.311754
11
7.2856262
21
-1.6939618
0
LINE
8
DEFAULT_255_1_388
10
7.2856262
20
-1.6939618
11
7.9461318
21
-1.6939618
0
ARC
8
DEFAULT_255_1_388
10
6.0219337
20
0.1377983
40
2.0258655
50
318.5132526
51
320.7829045
0
ARC
8
DEFAULT_255_1_388
10
6.6167294
20
-0.3463071
40
1.2589638
50
320.7372878
51
323.9739031
0
ARC
8
DEFAULT_255_1_388
10
7.0576226
20
-0.6657446
40
0.7145141
50
323.8962701
51
328.64194
0
ARC
8
DEFAULT_255_1_388
10
7.2878484
20
-0.8077455
40
0.4440242
50
328.8294576
51
331.7891185
0
ARC
8
DEFAULT_255_1_388
10
7.4000804
20
-0.8656626
40
0.3177517
50
331.4254512
51
352.9365785
0
ARC
8
DEFAULT_255_1_388
10
7.4153804
20
-0.869095
40
0.3021496
50
353.2257659
51
0.0166158
0
ARC
8
DEFAULT_255_1_388
10
7.4390564
20
-0.8665106
40
0.2784847
50
359.486299
51
15.9343185
0
ARC
8
DEFAULT_255_1_388
10
7.4960831
20
-0.8511731
40
0.2194403
50
16.1712913
51
43.5286088
0
ARC
8
DEFAULT_255_1_388
10
7.5047776
20
-0.8424809
40
0.2071504
50
43.4417391
51
83.1661095
0
ARC
8
DEFAULT_255_1_388
10
7.4896937
20
-0.9253684
40
0.2912888
50
82.160179
51
90.1505708
0
ARC
8
DEFAULT_255_1_388
10
7.4861418
20
-0.9857721
40
0.3517025
50
89.5460741
51
102.5418361
0
ARC
8
DEFAULT_255_1_388
10
7.4588138
20
-0.8698067
40
0.2325748
50
102.1738499
51
129.206123
0
ARC
8
DEFAULT_255_1_388
10
7.4499592
20
-0.8558336
40
0.2161591
50
129.72865
51
135.753947
0
ARC
8
DEFAULT_255_1_388
10
7.4636074
20
-0.8667272
40
0.2335433
50
136.1757367
51
166.3673339
0
ARC
8
DEFAULT_255_1_388
10
7.5768762
20
-0.8970852
40
0.3507873
50
165.9090694
51
178.8684636
0
ARC
8
DEFAULT_255_1_388
10
7.6744534
20
-0.9023737
40
0.4484624
50
178.4391136
51
180.0083808
0
ARC
8
DEFAULT_255_1_388
10
7.5165235
20
-0.8979803
40
0.4577138
50
163.2878482
51
180.5581842
0
ARC
8
DEFAULT_255_1_388
10
7.4263276
20
-0.8731607
40
0.3641968
50
133.4540601
51
162.947111
0
ARC
8
DEFAULT_255_1_388
10
7.4464158
20
-0.8945211
40
0.3935189
50
100.7869829
51
133.4382499
0
ARC
8
DEFAULT_255_1_388
10
7.4855403
20
-1.0687601
40
0.5720313
50
89.660664
51
101.3702276
0
ARC
8
DEFAULT_255_1_388
10
7.4930012
20
-1.0618737
40
0.5651495
50
78.2172678
51
90.412935
0
ARC
8
DEFAULT_255_1_388
10
7.5329478
20
-0.8791489
40
0.378122
50
55.9269121
51
78.4888449
0
ARC
8
DEFAULT_255_1_388
10
7.5550193
20
-0.8410813
40
0.3342379
50
47.929771
51
55.4049217
0
ARC
8
DEFAULT_255_1_388
10
7.5664723
20
-0.8294382
40
0.3179217
50
4.334829
51
48.0560205
0
ARC
8
DEFAULT_255_1_388
10
7.4432525
20
-0.8485513
40
0.442341
50
359.9251713
51
5.5971671
0
ARC
8
DEFAULT_255_1_388
10
7.491468
20
-0.8422272
40
0.3941854
50
337.8914027
51
358.9967534
0
ARC
8
DEFAULT_255_1_388
10
7.186225
20
-0.7244705
40
0.7213271
50
326.9132501
51
338.3508308
0
ARC
8
DEFAULT_255_1_388
10
6.7378362
20
-0.4370895
40
1.2538973
50
319.6471833
51
327.0959558
0
ARC
8
DEFAULT_255_1_388
10
6.306502
20
-0.081295
40
1.8129975
50
317.2588228
51
319.9045804
0
LINE
8
DEFAULT_255_1_388
10
8.8289143
20
-0.5148102
11
8.8289143
21
-1.388557
0
LINE
8
DEFAULT_255_1_388
10
8.8289143
20
-1.388557
11
9.0114343
21
-1.388557
0
LINE
8
DEFAULT_255_1_388
10
9.0114343
20
-1.388557
11
9.0114343
21
-1.5249952
0
LINE
8
DEFAULT_255_1_388
10
9.0114343
20
-1.5249952
11
8.8289143
21
-1.5249952
0
LINE
8
DEFAULT_255_1_388
10
8.8289143
20
-1.5249952
11
8.8289143
21
-1.8304
0
LINE
8
DEFAULT_255_1_388
10
8.8289143
20
-1.8304
11
8.6608513
21
-1.8304
0
LINE
8
DEFAULT_255_1_388
10
8.6608513
20
-1.8304
11
8.6608513
21
-1.5249952
0
LINE
8
DEFAULT_255_1_388
10
8.6608513
20
-1.5249952
11
8.061788
21
-1.5249952
0
LINE
8
DEFAULT_255_1_388
10
8.061788
20
-1.5249952
11
8.061788
21
-1.4265067
0
LINE
8
DEFAULT_255_1_388
10
8.061788
20
-1.4265067
11
8.6509121
21
-0.5148102
0
LINE
8
DEFAULT_255_1_388
10
8.6509121
20
-0.5148102
11
8.8289143
21
-0.5148102
0
LINE
8
DEFAULT_255_1_388
10
8.6409729
20
-0.7795545
11
8.2515366
21
-1.388557
0
LINE
8
DEFAULT_255_1_388
10
8.2515366
20
-1.388557
11
8.6608513
21
-1.388557
0
LINE
8
DEFAULT_255_1_388
10
8.6608513
20
-1.388557
11
8.6608513
21
-0.743412
0
LINE
8
DEFAULT_255_1_388
10
8.6608513
20
-0.743412
11
8.6409729
21
-0.7795545
0
LINE
8
DEFAULT_255_1_388
10
9.7884997
20
-0.5139066
11
9.8183173
21
-0.5139066
0
LINE
8
DEFAULT_255_1_388
10
9.8183173
20
-0.5139066
11
9.8183173
21
-0.6557662
0
LINE
8
DEFAULT_255_1_388
10
9.8183173
20
-0.6557662
11
9.7875961
21
-0.6557662
0
LINE
8
DEFAULT_255_1_388
10
9.1722687
20
-1.3298253
11
9.1722687
21
-1.2656722
0
LINE
8
DEFAULT_255_1_388
10
9.3403317
20
-1.2873578
11
9.3403317
21
-1.3488001
0
ARC
8
DEFAULT_255_1_388
10
9.7934853
20
-1.2180174
40
0.562282
50
90.6001079
51
104.5146616
0
ARC
8
DEFAULT_255_1_388
10
9.7497812
20
-1.05549
40
0.3939917
50
104.2855758
51
133.8630124
0
ARC
8
DEFAULT_255_1_388
10
9.7682065
20
-1.0676757
40
0.4155734
50
134.5304124
51
161.6210222
0
ARC
8
DEFAULT_255_1_388
10
9.9541997
20
-1.1332579
40
0.6127682
50
161.2850533
51
174.2074364
0
ARC
8
DEFAULT_255_1_388
10
10.1131564
20
-1.1551563
40
0.7731446
50
173.7817938
51
174.9251711
0
ARC
8
DEFAULT_255_1_388
10
9.6005758
20
-1.310673
40
0.3412588
50
95.8332067
51
138.995412
0
ARC
8
DEFAULT_255_1_388
10
9.6257038
20
-1.4545305
40
0.4870358
50
89.8755506
51
97.0540979
0
ARC
8
DEFAULT_255_1_388
10
9.6310427
20
-1.3605159
40
0.3930432
50
71.6407016
51
90.6240821
0
ARC
8
DEFAULT_255_1_388
10
9.6479821
20
-1.2981567
40
0.3285421
50
39.6368051
51
71.0190743
0
ARC
8
DEFAULT_255_1_388
10
9.5763728
20
-1.3600414
40
0.4231706
50
10.6588054
51
39.9044509
0
ARC
8
DEFAULT_255_1_388
10
9.4022274
20
-1.3978777
40
0.60133
50
359.6827842
51
11.1326896
0
ARC
8
DEFAULT_255_1_388
10
9.397761
20
-1.4058285
40
0.6058047
50
347.2485908
51
0.4371098
0
ARC
8
DEFAULT_255_1_388
10
9.5853395
20
-1.4509621
40
0.4128987
50
318.1408565
51
347.6118497
0
ARC
8
DEFAULT_255_1_388
10
9.6218992
20
-1.4810097
40
0.3656244
50
275.6342406
51
317.824739
0
ARC
8
DEFAULT_255_1_388
10
9.5970513
20
-1.3348173
40
0.513655
50
269.8872513
51
276.7916069
0
ARC
8
DEFAULT_255_1_388
10
9.5908705
20
-1.4501819
40
0.398323
50
246.9139443
51
270.7436787
0
ARC
8
DEFAULT_255_1_388
10
9.5915901
20
-1.4661956
40
0.3839368
50
218.1665534
51
245.8780431
0
ARC
8
DEFAULT_255_1_388
10
9.6905273
20
-1.3834097
40
0.5128958
50
191.4115343
51
218.6077624
0
ARC
8
DEFAULT_255_1_388
10
9.908559
20
-1.3345223
40
0.7363054
50
179.6344971
51
191.7836758
0
ARC
8
DEFAULT_255_1_388
10
10.5365464
20
-1.2581505
40
1.3642984
50
171.4523743
51
180.3158856
0
ARC
8
DEFAULT_255_1_388
10
10.0421191
20
-1.1812105
40
0.8639311
50
157.9802296
51
171.6246761
0
ARC
8
DEFAULT_255_1_388
10
9.7930542
20
-1.0818962
40
0.5958004
50
141.4299236
51
157.8541251
0
ARC
8
DEFAULT_255_1_388
10
9.7208625
20
-1.0308254
40
0.5075416
50
102.871586
51
140.8564533
0
ARC
8
DEFAULT_255_1_388
10
9.7937178
20
-1.3053057
40
0.7914163
50
90.377773
51
103.5868422
0
ARC
8
DEFAULT_255_1_388
10
9.5981699
20
-1.3733457
40
0.2667015
50
89.8751238
51
126.2072139
0
ARC
8
DEFAULT_255_1_388
10
9.603317
20
-1.3907153
40
0.2838229
50
124.9742447
51
144.8960197
0
ARC
8
DEFAULT_255_1_388
10
9.5835415
20
-1.3746019
40
0.2583845
50
145.2974778
51
160.2660922
0
ARC
8
DEFAULT_255_1_388
10
9.9291903
20
-1.3523849
40
0.5888695
50
179.6512124
51
190.285571
0
ARC
8
DEFAULT_255_1_388
10
9.7386383
20
-1.3883032
40
0.3949683
50
190.0944895
51
207.5099647
0
ARC
8
DEFAULT_255_1_388
10
9.6749965
20
-1.4185823
40
0.3245464
50
207.9585471
51
216.325377
0
ARC
8
DEFAULT_255_1_388
10
9.6367602
20
-1.4500288
40
0.2751259
50
215.7661336
51
232.5457193
0
ARC
8
DEFAULT_255_1_388
10
9.5936718
20
-1.5047727
40
0.2054668
50
232.8005815
51
270.6605497
0
ARC
8
DEFAULT_255_1_388
10
9.5988142
20
-1.4638147
40
0.2464268
50
269.3550767
51
288.474612
0
ARC
8
DEFAULT_255_1_388
10
9.6092649
20
-1.5031279
40
0.2058436
50
289.1831976
51
322.9685307
0
ARC
8
DEFAULT_255_1_388
10
9.5404751
20
-1.4488721
40
0.2934408
50
322.6007085
51
346.5183319
0
ARC
8
DEFAULT_255_1_388
10
9.4102507
20
-1.4156566
40
0.4278249
50
346.2584622
51
358.7739592
0
ARC
8
DEFAULT_255_1_388
10
9.2951082
20
-1.4094171
40
0.5430876
50
358.3757628
51
0.0082477
0
ARC
8
DEFAULT_255_1_388
10
9.38079
20
-1.4063144
40
0.4574157
50
359.6211417
51
11.28403
0
ARC
8
DEFAULT_255_1_388
10
9.5244507
20
-1.3763465
40
0.3106708
50
11.0483152
51
31.8145585
0
ARC
8
DEFAULT_255_1_388
10
9.5592212
20
-1.3574955
40
0.2711963
50
32.3028554
51
38.0820598
0
ARC
8
DEFAULT_255_1_388
10
9.6065445
20
-1.3146283
40
0.2075566
50
36.8249851
51
85.741667
0
ARC
8
DEFAULT_255_1_388
10
9.5989857
20
-1.3709935
40
0.2643487
50
85.0150021
51
90.050843
0
LINE
8
DEFAULT_255_2_778
10
9.8552
20
10.4510749
11
9.8552
21
6.4823749
0
LINE
8
DEFAULT_255_2_778
10
9.8551417
20
-2.7780918
11
9.8551417
21
1.1906082
0
LINE
8
DEFAULT_255_2_778
10
9.8551417
20
1.1906082
11
8.5322417
21
6.4823082
0
LINE
8
DEFAULT_255_2_778
10
15.1469
20
10.4510749
11
15.1469
21
6.4823749
0
LINE
8
DEFAULT_255_2_778
10
15.1468417
20
-2.7780918
11
15.1468417
21
1.1906082
0
LINE
8
DEFAULT_255_2_778
10
15.1468417
20
1.1906082
11
13.8239417
21
6.4823082
0
LINE
8
DEFAULT_255_2_778
10
20.4385
20
10.4510749
11
20.4385
21
6.4823749
0
LINE
8
DEFAULT_255_2_778
10
20.4385417
20
-2.7780918
11
20.4385417
21
1.1906082
0
LINE
8
DEFAULT_255_2_778
10
20.4385417
20
1.1906082
11
19.1156417
21
6.4823082
0
LINE
8
DEFAULT_255_2_778_3
10
19.7770335
20
3.8365
11
9.1937335
21
3.8365
0
LINE
8
DEFAULT_255_2_778
10
9.1937417
20
6.4823
11
10.5166417
21
6.4823
0
LINE
8
DEFAULT_255_2_778
10
14.4854417
20
6.4823
11
15.8083417
21
6.4823
0
LINE
8
DEFAULT_255_2_778
10
19.7770417
20
6.4823
11
21.0999417
21
6.4823
0
ARC
8
DEFAULT_255_2_778
10
9.8543335
20
6.0863666
40
0.3960095
50
89.8710075
51
180.1289967
0
ARC
8
DEFAULT_255_2_778
10
9.856038
20
6.0863878
40
0.395988
50
359.8679252
51
90.1176342
0
ARC
8
DEFAULT_255_2_778
10
9.8560595
20
6.0846405
40
0.3959664
50
269.8792548
51
0.1207452
0
ARC
8
DEFAULT_255_2_778
10
9.8543123
20
6.0846621
40
0.3959881
50
179.8823802
51
270.1320647
0
LINE
8
DEFAULT_255_2_778
10
9.458325
20
6.085475
11
9.458325
21
6.085475
0
ARC
8
DEFAULT_255_2_778
10
15.1460335
20
6.0863666
40
0.3960095
50
89.8710075
51
180.1289967
0
ARC
8
DEFAULT_255_2_778
10
15.147738
20
6.0863878
40
0.395988
50
359.8679252
51
90.1176342
0
ARC
8
DEFAULT_255_2_778
10
15.1477595
20
6.0846405
40
0.3959664
50
269.8792548
51
0.1207452
0
ARC
8
DEFAULT_255_2_778
10
15.1460123
20
6.0846621
40
0.3959881
50
179.8823802
51
270.1320647
0
LINE
8
DEFAULT_255_2_778
10
14.750025
20
6.085475
11
14.750025
21
6.085475
0
ARC
8
DEFAULT_255_2_778
10
20.4376335
20
6.0863666
40
0.3960095
50
89.8710075
51
180.1289967
0
ARC
8
DEFAULT_255_2_778
10
20.439338
20
6.0863878
40
0.395988
50
359.8679252
51
90.1176342
0
ARC
8
DEFAULT_255_2_778
10
20.4393595
20
6.0846405
40
0.3959664
50
269.8792548
51
0.1207452
0
ARC
8
DEFAULT_255_2_778
10
20.4376123
20
6.0846621
40
0.3959881
50
179.8823802
51
270.1320647
0
LINE
8
DEFAULT_255_2_778
10
20.041625
20
6.085475
11
20.041625
21
6.085475
0
ENDSEC
0
EOF