0
SECTION
2
HEADER
9
$MEASUREMENT
70
1
0
ENDSEC
0
SECTION
2
TABLES
0
TABLE
2
LTYPE
0
LTYPE
72
65
70
64
2
CONTINUOUS
3
______
73
0
40
0
0
ENDTAB
0
TABLE
2
LAYER
0
LAYER
2
DEFAULT_255_2_778
70
0
62
255
6
CONTINUOUS
0
LAYER
2
DEFAULT_255_2_778_3
70
0
62
255
6
CONTINUOUS
0
LAYER
2
DEFAULT_255_1_234
70
0
62
255
6
CONTINUOUS
0
ENDTAB
0
ENDSEC
0
SECTION
2
ENTITIES
0
LINE
8
DEFAULT_255_2_778
10
8.8635084
20
10.4510831
11
8.8635084
21
6.4823831
0
LINE
8
DEFAULT_255_2_778
10
8.8635084
20
-2.7781169
11
8.8635084
21
1.1906831
0
LINE
8
DEFAULT_255_2_778
10
8.8635084
20
1.1906831
11
7.5406084
21
6.4823831
0
LINE
8
DEFAULT_255_2_778
10
14.1552084
20
10.4510831
11
14.1552084
21
6.4823831
0
LINE
8
DEFAULT_255_2_778
10
14.1552084
20
-2.7781169
11
14.1552084
21
1.1906831
0
LINE
8
DEFAULT_255_2_778
10
14.1552084
20
1.1906831
11
12.8323084
21
6.4823831
0
LINE
8
DEFAULT_255_2_778_3
10
13.4937667
20
3.8365
11
8.2020667
21
3.8365
0
LINE
8
DEFAULT_255_2_778
10
7.2989875
20
3.1943958
11
6.0853875
21
2.5035958
0
LINE
8
DEFAULT_255_2_778
10
6.0853875
20
2.5035958
11
7.4791875
21
2.4143958
0
LINE
8
DEFAULT_255_2_778
10
7.4791875
20
2.4143958
11
7.2989875
21
3.1943958
0
LINE
8
DEFAULT_255_2_778
10
8.371424
20
3.0398094
11
7.391624
21
2.8136094
0
LINE
8
DEFAULT_255_2_778
10
12.5906875
20
3.1943958
11
11.3770875
21
2.5035958
0
LINE
8
DEFAULT_255_2_778
10
11.3770875
20
2.5035958
11
12.7708875
21
2.4143958
0
LINE
8
DEFAULT_255_2_778
10
12.7708875
20
2.4143958
11
12.5906875
21
3.1943958
0
LINE
8
DEFAULT_255_2_778
10
13.6630387
20
3.0398146
11
12.6833387
21
2.8136146
0
LINE
8
DEFAULT_255_2_778
10
7.9853387
20
4.0907146
11
7.2530387
21
3.9010146
0
LINE
8
DEFAULT_255_2_778
10
7.2530387
20
3.9010146
11
7.0506387
21
4.6302146
0
LINE
8
DEFAULT_255_2_778
10
7.0506387
20
4.6302146
11
6.3182387
21
4.4405146
0
LINE
8
DEFAULT_255_2_778
10
6.3182387
20
4.4405146
11
6.5201387
21
3.7113146
0
LINE
8
DEFAULT_255_2_778
10
6.5201387
20
3.7113146
11
5.7877387
21
3.5216146
0
LINE
8
DEFAULT_255_2_778
10
13.2770387
20
4.0907146
11
12.5446387
21
3.9010146
0
LINE
8
DEFAULT_255_2_778
10
12.5446387
20
3.9010146
11
12.3422387
21
4.6302146
0
LINE
8
DEFAULT_255_2_778
10
12.3422387
20
4.6302146
11
11.6099387
21
4.4405146
0
LINE
8
DEFAULT_255_2_778
10
11.6099387
20
4.4405146
11
11.8117387
21
3.7113146
0
LINE
8
DEFAULT_255_2_778
10
11.8117387
20
3.7113146
11
11.0794387
21
3.5216146
0
LINE
8
DEFAULT_255_1_234
10
6.4171137
20
9.3370433
11
6.4171137
21
8.162
0
LINE
8
DEFAULT_255_1_234
10
6.4171137
20
8.162
11
6.2677234
21
8.162
0
LINE
8
DEFAULT_255_1_234
10
6.2677234
20
8.162
11
6.2677234
21
9.1523133
0
LINE
8
DEFAULT_255_1_234
10
6.2677234
20
9.1523133
11
5.9681396
21
9.0422785
0
LINE
8
DEFAULT_255_1_234
10
5.9681396
20
9.0422785
11
5.9681396
21
9.1772117
0
LINE
8
DEFAULT_255_1_234
10
5.9681396
20
9.1772117
11
6.3938217
21
9.3370433
0
LINE
8
DEFAULT_255_1_234
10
6.3938217
20
9.3370433
11
6.4171137
21
9.3370433
0
LINE
8
DEFAULT_255_1_234
10
7.0684877
20
8.6977169
11
7.0684877
21
8.8189962
0
LINE
8
DEFAULT_255_1_234
10
7.0684877
20
8.8189962
11
7.1801289
21
8.8189962
0
LINE
8
DEFAULT_255_1_234
10
6.9897767
20
9.0246087
11
6.8411895
21
9.0246087
0
LINE
8
DEFAULT_255_1_234
10
6.8307482
20
8.4704188
11
6.9801386
21
8.4704188
0
LINE
8
DEFAULT_255_1_234
10
7.1801289
20
8.6977169
11
7.0684877
21
8.6977169
0
ARC
8
DEFAULT_255_1_234
10
7.1772155
20
9.1582713
40
0.3392876
50
270.4919872
51
281.8951556
0
ARC
8
DEFAULT_255_1_234
10
7.2013417
20
9.0480702
40
0.2264817
50
281.6691735
51
301.2943132
0
ARC
8
DEFAULT_255_1_234
10
7.2183627
20
9.0169304
40
0.1910381
50
301.7833094
51
311.7545298
0
ARC
8
DEFAULT_255_1_234
10
7.2275203
20
9.0067748
40
0.1773635
50
311.7323931
51
354.2802411
0
ARC
8
DEFAULT_255_1_234
10
7.1548828
20
9.0192722
40
0.2509385
50
353.0937916
51
0.1181479
0
ARC
8
DEFAULT_255_1_234
10
7.1087613
20
9.0240386
40
0.2970898
50
359.1805295
51
15.0453146
0
ARC
8
DEFAULT_255_1_234
10
7.243345
20
9.0632992
40
0.1569564
50
13.9577229
51
77.6713066
0
ARC
8
DEFAULT_255_1_234
10
7.2046979
20
8.9247949
40
0.3006298
50
76.1116566
51
90.7026153
0
ARC
8
DEFAULT_255_1_234
10
7.1987817
20
8.9521545
40
0.2732568
50
89.5324876
51
103.531937
0
ARC
8
DEFAULT_255_1_234
10
7.1787261
20
9.0320884
40
0.1908508
50
103.2931773
51
133.5619022
0
ARC
8
DEFAULT_255_1_234
10
7.174275
20
9.0380375
40
0.1834746
50
133.8349307
51
173.5344437
0
ARC
8
DEFAULT_255_1_234
10
7.2465793
20
9.0252213
40
0.2568033
50
172.5096846
51
180.1366907
0
ARC
8
DEFAULT_255_1_234
10
7.1514687
20
9.0286622
40
0.3103056
50
155.3484492
51
180.7484736
0
ARC
8
DEFAULT_255_1_234
10
7.1465776
20
9.0257846
40
0.3070957
50
131.5744599
51
154.4798489
0
ARC
8
DEFAULT_255_1_234
10
7.1778923
20
8.994131
40
0.3515643
50
96.9875458
51
131.9690667
0
ARC
8
DEFAULT_255_1_234
10
7.1998403
20
8.8695636
40
0.4779224
50
89.8596053
51
97.7825159
0
ARC
8
DEFAULT_255_1_234
10
7.2046466
20
8.8433616
40
0.5041361
50
78.3655447
51
90.4131539
0
ARC
8
DEFAULT_255_1_234
10
7.2404384
20
9.0092887
40
0.3344039
50
56.6229102
51
78.638727
0
ARC
8
DEFAULT_255_1_234
10
7.2619328
20
9.0468805
40
0.2912001
50
47.0253525
51
56.0854072
0
ARC
8
DEFAULT_255_1_234
10
7.2639108
20
9.0508223
40
0.2869704
50
10.9208013
51
46.7778124
0
ARC
8
DEFAULT_255_1_234
10
7.1275174
20
9.0192857
40
0.426899
50
359.6364486
51
11.6087304
0
ARC
8
DEFAULT_255_1_234
10
7.3110018
20
9.0177752
40
0.243409
50
332.3549906
51
359.7179418
0
ARC
8
DEFAULT_255_1_234
10
7.245962
20
9.0486142
40
0.3153459
50
325.2333722
51
332.8745602
0
ARC
8
DEFAULT_255_1_234
10
7.2612244
20
9.0379828
40
0.2967456
50
292.9802137
51
325.2392345
0
ARC
8
DEFAULT_255_1_234
10
7.2337617
20
9.0913863
40
0.3566604
50
292.5402179
51
293.6924929
0
ARC
8
DEFAULT_255_1_234
10
7.2730213
20
8.4459091
40
0.3307468
50
57.6435486
51
72.8625112
0
ARC
8
DEFAULT_255_1_234
10
7.3084713
20
8.5033549
40
0.2632492
50
36.7248896
51
57.4697979
0
ARC
8
DEFAULT_255_1_234
10
7.3073346
20
8.504622
40
0.2634081
50
8.0545065
51
36.356114
0
ARC
8
DEFAULT_255_1_234
10
7.2210531
20
8.4891174
40
0.3510261
50
359.8320645
51
8.5869982
0
ARC
8
DEFAULT_255_1_234
10
7.1835307
20
8.4843101
40
0.3885653
50
343.9829931
51
0.5571613
0
ARC
8
DEFAULT_255_1_234
10
7.2721504
20
8.4600438
40
0.2966924
50
311.6359546
51
343.7651759
0
ARC
8
DEFAULT_255_1_234
10
7.2343074
20
8.5027102
40
0.3537231
50
279.7829875
51
311.6255694
0
ARC
8
DEFAULT_255_1_234
10
7.204185
20
8.646428
40
0.5004971
50
269.7286406
51
280.3856417
0
ARC
8
DEFAULT_255_1_234
10
7.1979922
20
8.6422996
40
0.4963778
50
256.6828919
51
270.4412052
0
ARC
8
DEFAULT_255_1_234
10
7.1641218
20
8.5038394
40
0.3538406
50
229.4223008
51
256.8556159
0
ARC
8
DEFAULT_255_1_234
10
7.1226611
20
8.4571736
40
0.2914296
50
181.818294
51
229.6455059
0
ARC
8
DEFAULT_255_1_234
10
7.2266567
20
8.4702496
40
0.3959084
50
179.9755256
51
183.2323064
0
ARC
8
DEFAULT_255_1_234
10
7.2094313
20
8.4682037
40
0.2293034
50
179.4465117
51
196.2869258
0
ARC
8
DEFAULT_255_1_234
10
7.1606721
20
8.4548651
40
0.1787621
50
196.5661473
51
227.705904
0
ARC
8
DEFAULT_255_1_234
10
7.1770816
20
8.4732155
40
0.2033784
50
227.7652068
51
257.8762805
0
ARC
8
DEFAULT_255_1_234
10
7.1995786
20
8.5675156
40
0.3003081
50
257.4584385
51
270.426602
0
ARC
8
DEFAULT_255_1_234
10
7.2041352
20
8.5964996
40
0.329292
50
269.5962073
51
280.8789248
0
ARC
8
DEFAULT_255_1_234
10
7.2270881
20
8.4818685
40
0.2123908
50
280.6346389
51
299.8595945
0
ARC
8
DEFAULT_255_1_234
10
7.2461788
20
8.4456212
40
0.171457
50
300.3576302
51
314.5517981
0
ARC
8
DEFAULT_255_1_234
10
7.2378848
20
8.4516919
40
0.1816095
50
315.0728369
51
345.0431014
0
ARC
8
DEFAULT_255_1_234
10
7.1455662
20
8.4785841
40
0.2777492
50
344.5986631
51
357.9269593
0
ARC
8
DEFAULT_255_1_234
10
7.0559989
20
8.4847276
40
0.3674917
50
357.4748886
51
0.0231117
0
ARC
8
DEFAULT_255_1_234
10
7.1583098
20
8.4871679
40
0.2651907
50
359.5047933
51
13.4239635
0
ARC
8
DEFAULT_255_1_234
10
7.2449741
20
8.5093478
40
0.1757509
50
12.9498199
51
48.7551375
0
ARC
8
DEFAULT_255_1_234
10
7.2267475
20
8.48444
40
0.2065134
50
49.5088623
51
72.1836453
0
ARC
8
DEFAULT_255_1_234
10
7.1909628
20
8.3782291
40
0.3185836
50
71.9010081
51
84.3554254
0
ARC
8
DEFAULT_255_1_234
10
7.174826
20
8.2421326
40
0.4556151
50
84.0193428
51
89.333121
0
LINE
8
DEFAULT_255_1_234
10
6.8984119
20
-1.7206208
11
6.8984119
21
-1.8419
0
LINE
8
DEFAULT_255_1_234
10
6.8984119
20
-1.8419
11
6.132184
21
-1.8419
0
LINE
8
DEFAULT_255_1_234
10
6.132184
20
-1.8419
11
6.132184
21
-1.7350779
0
LINE
8
DEFAULT_255_1_234
10
6.132184
20
-1.7350779
11
6.5369836
21
-1.2853005
0
LINE
8
DEFAULT_255_1_234
10
6.2582823
20
-1.0170405
11
6.1096952
21
-1.0170405
0
LINE
8
DEFAULT_255_1_234
10
6.6245296
20
-1.3808782
11
6.3112918
21
-1.7206208
0
LINE
8
DEFAULT_255_1_234
10
6.3112918
20
-1.7206208
11
6.8984119
21
-1.7206208
0
ARC
8
DEFAULT_255_1_234
10
5.187967
20
-0.0923473
40
1.8008286
50
318.5132453
51
320.7828378
0
ARC
8
DEFAULT_255_1_234
10
5.7166644
20
-0.5226574
40
1.1191493
50
320.7372736
51
323.9737074
0
ARC
8
DEFAULT_255_1_234
10
6.1086501
20
-0.8066639
40
0.6350923
50
323.8961724
51
328.6421089
0
ARC
8
DEFAULT_255_1_234
10
6.3133096
20
-0.9328969
40
0.3946393
50
328.8299013
51
331.789948
0
ARC
8
DEFAULT_255_1_234
10
6.4130274
20
-0.9843491
40
0.2824501
50
331.4255242
51
352.9364833
0
ARC
8
DEFAULT_255_1_234
10
6.4266775
20
-0.9874024
40
0.2685315
50
353.2248685
51
0.0169286
0
ARC
8
DEFAULT_255_1_234
10
6.4476652
20
-0.985105
40
0.2475536
50
359.4866256
51
15.9339782
0
ARC
8
DEFAULT_255_1_234
10
6.4983637
20
-0.9714714
40
0.1950618
50
16.1714718
51
43.5284424
0
ARC
8
DEFAULT_255_1_234
10
6.5060946
20
-0.9637427
40
0.184134
50
43.4415429
51
83.1661404
0
ARC
8
DEFAULT_255_1_234
10
6.4926864
20
-1.0374229
40
0.258926
50
82.160215
51
90.1505798
0
ARC
8
DEFAULT_255_1_234
10
6.4895291
20
-1.0911135
40
0.3126255
50
89.5460705
51
102.5418777
0
ARC
8
DEFAULT_255_1_234
10
6.4652377
20
-0.9880335
40
0.2067346
50
102.1739365
51
129.2061916
0
ARC
8
DEFAULT_255_1_234
10
6.4573449
20
-0.9755906
40
0.1921118
50
129.7279328
51
135.7542026
0
ARC
8
DEFAULT_255_1_234
10
6.4694977
20
-0.9852955
40
0.2075944
50
136.175737
51
166.3674722
0
ARC
8
DEFAULT_255_1_234
10
6.5701896
20
-1.0122818
40
0.3118201
50
165.9092917
51
178.8683903
0
ARC
8
DEFAULT_255_1_234
10
6.6566757
20
-1.0169821
40
0.3983935
50
178.438168
51
180.0083905
0
ARC
8
DEFAULT_255_1_234
10
6.5165359
20
-1.0130769
40
0.4068601
50
163.2878735
51
180.5581814
0
ARC
8
DEFAULT_255_1_234
10
6.4363621
20
-0.991016
40
0.3237344
50
133.454115
51
162.9470031
0
ARC
8
DEFAULT_255_1_234
10
6.4542162
20
-1.01
40
0.349795
50
100.7869394
51
133.4384016
0
ARC
8
DEFAULT_255_1_234
10
6.4889934
20
-1.1648681
40
0.5084616
50
89.6605301
51
101.3704185
0
ARC
8
DEFAULT_255_1_234
10
6.4956273
20
-1.1587504
40
0.502348
50
78.2171172
51
90.4130393
0
ARC
8
DEFAULT_255_1_234
10
6.5311351
20
-0.9963363
40
0.3361092
50
55.9268222
51
78.4888551
0
ARC
8
DEFAULT_255_1_234
10
6.5507791
20
-0.9624676
40
0.2970617
50
47.9292255
51
55.4054003
0
ARC
8
DEFAULT_255_1_234
10
6.5609352
20
-0.9521498
40
0.2825983
50
4.3347696
51
48.0560701
0
ARC
8
DEFAULT_255_1_234
10
6.4513745
20
-0.9691399
40
0.393225
50
359.925209
51
5.5967654
0
ARC
8
DEFAULT_255_1_234
10
6.4942637
20
-0.9635184
40
0.3503892
50
337.8914096
51
358.9967724
0
ARC
8
DEFAULT_255_1_234
10
6.2229049
20
-0.8588294
40
0.6412172
50
326.9135351
51
338.3505194
0
ARC
8
DEFAULT_255_1_234
10
5.8243353
20
-0.6033716
40
1.1146189
50
319.6472867
51
327.095818
0
ARC
8
DEFAULT_255_1_234
10
5.4410356
20
-0.2872
40
1.6114559
50
317.2586784
51
319.9046139
0
LINE
8
DEFAULT_255_1_234
10
7.6831127
20
-0.6724789
11
7.6831127
21
-1.449148
0
LINE
8
DEFAULT_255_1_234
10
7.6831127
20
-1.449148
11
7.8453538
21
-1.449148
0
LINE
8
DEFAULT_255_1_234
10
7.8453538
20
-1.449148
11
7.8453538
21
-1.5704272
0
LINE
8
DEFAULT_255_1_234
10
7.8453538
20
-1.5704272
11
7.6831127
21
-1.5704272
0
LINE
8
DEFAULT_255_1_234
10
7.6831127
20
-1.5704272
11
7.6831127
21
-1.8419
0
LINE
8
DEFAULT_255_1_234
10
7.6831127
20
-1.8419
11
7.5337224
21
-1.8419
0
LINE
8
DEFAULT_255_1_234
10
7.5337224
20
-1.8419
11
7.5337224
21
-1.5704272
0
LINE
8
DEFAULT_255_1_234
10
7.5337224
20
-1.5704272
11
7.0012181
21
-1.5704272
0
LINE
8
DEFAULT_255_1_234
10
7.0012181
20
-1.5704272
11
7.0012181
21
-1.4828813
0
LINE
8
DEFAULT_255_1_234
10
7.0012181
20
-1.4828813
11
7.5248875
21
-0.6724789
0
LINE
8
DEFAULT_255_1_234
10
7.5248875
20
-0.6724789
11
7.6831127
21
-0.6724789
0
LINE
8
DEFAULT_255_1_234
10
7.5160525
20
-0.9078088
11
7.1698846
21
-1.449148
0
LINE
8
DEFAULT_255_1_234
10
7.1698846
20
-1.449148
11
7.5337224
21
-1.449148
0
LINE
8
DEFAULT_255_1_234
10
7.5337224
20
-1.449148
11
7.5337224
21
-0.8756819
0
LINE
8
DEFAULT_255_1_234
10
7.5337224
20
-0.8756819
11
7.5160525
21
-0.9078088
0
ENDSEC
0
EOF