0
SECTION
2
HEADER
9
$MEASUREMENT
70
1
0
ENDSEC
0
SECTION
2
TABLES
0
TABLE
2
LTYPE
0
LTYPE
72
65
70
64
2
CONTINUOUS
3
______
73
0
40
0
0
ENDTAB
0
TABLE
2
LAYER
0
LAYER
2
DEFAULT_255_2_778
70
0
62
255
6
CONTINUOUS
0
ENDTAB
0
ENDSEC
0
SECTION
2
ENTITIES
0
LINE
8
DEFAULT_255_2_778
10
2.7781667
20
2.5135333
11
8.0698667
21
2.5135333
0
LINE
8
DEFAULT_255_2_778
10
8.0698667
20
2.5135333
11
8.0698667
21
-2.7781667
0
LINE
8
DEFAULT_255_2_778
10
8.0698667
20
-2.7781667
11
2.7781667
21
-2.7781667
0
LINE
8
DEFAULT_255_2_778
10
2.7781667
20
-2.7781667
11
2.7781667
21
2.5135333
0
ARC
8
DEFAULT_255_2_778
10
4.6887825
20
-0.4050253
40
0.4972789
50
332.8674584
51
1.5771661
0
ARC
8
DEFAULT_255_2_778
10
4.7932938
20
-0.448435
40
0.3845777
50
313.1219033
51
331.5220381
0
ARC
8
DEFAULT_255_2_778
10
4.7447197
20
-0.3867233
40
0.4628729
50
272.2720287
51
312.2889534
0
ARC
8
DEFAULT_255_2_778
10
4.711009
20
-0.1393652
40
0.7117736
50
269.9488004
51
274.1944967
0
ARC
8
DEFAULT_255_2_778
10
4.6974716
20
-0.2412126
40
0.6100624
50
249.5343748
51
271.2117518
0
ARC
8
DEFAULT_255_2_778
10
4.6281985
20
-0.4434634
40
0.3963988
50
227.6326805
51
248.6937974
0
ARC
8
DEFAULT_255_2_778
10
4.634959
20
-0.4480627
40
0.3976387
50
181.5696345
51
226.4662854
0
ARC
8
DEFAULT_255_2_778
10
4.8716611
20
-0.4153569
40
0.6356884
50
179.9532792
51
183.9326447
0
ARC
8
DEFAULT_255_2_778
10
4.7209038
20
-0.4288422
40
0.2868729
50
177.2020108
51
216.604797
0
ARC
8
DEFAULT_255_2_778
10
4.6664433
20
-0.4587788
40
0.2254607
50
218.7506885
51
224.3691369
0
ARC
8
DEFAULT_255_2_778
10
4.6853221
20
-0.4260951
40
0.2620083
50
226.5920039
51
270.1009549
0
ARC
8
DEFAULT_255_2_778
10
4.7101026
20
-0.2230958
40
0.4656428
50
267.0062866
51
270.033262
0
ARC
8
DEFAULT_255_2_778
10
4.721326
20
-0.422866
40
0.2660981
50
267.6409289
51
314.9656401
0
ARC
8
DEFAULT_255_2_778
10
4.6949373
20
-0.4145484
40
0.2909129
50
317.4860412
51
0.1994617
0
ARC
8
DEFAULT_255_2_778
10
4.4931519
20
-0.3904909
40
0.4932351
50
357.3220665
51
359.5646505
0
LINE
8
DEFAULT_255_2_778
10
4.9863729
20
-0.3945386
11
4.9863729
21
0.6741614
0
LINE
8
DEFAULT_255_2_778
10
4.9863729
20
0.6741614
11
5.1858729
21
0.6741614
0
LINE
8
DEFAULT_255_2_778
10
5.1858729
20
0.6741614
11
5.1858729
21
-0.3913386
0
LINE
8
DEFAULT_255_2_778
10
4.2359729
20
-0.4148386
11
4.4343729
21
-0.4148386
0
LINE
8
DEFAULT_255_2_778
10
4.9863729
20
-0.3942386
11
4.9863729
21
-0.3945386
0
ARC
8
DEFAULT_255_2_778
10
6.0279992
20
-0.1443028
40
0.8185722
50
75.9079615
51
90.8702453
0
ARC
8
DEFAULT_255_2_778
10
6.1282523
20
0.2488959
40
0.4127996
50
51.705322
51
76.1161517
0
ARC
8
DEFAULT_255_2_778
10
6.1584606
20
0.3083724
40
0.3476489
50
1.6269726
51
49.5376598
0
ARC
8
DEFAULT_255_2_778
10
5.9225129
20
0.2737009
40
0.5851542
50
359.9387094
51
4.3655796
0
ARC
8
DEFAULT_255_2_778
10
6.2024722
20
0.2684908
40
0.3052289
50
323.4161768
51
0.8605427
0
ARC
8
DEFAULT_255_2_778
10
6.1375147
20
0.3203309
40
0.3882964
50
292.22196
51
322.9864494
0
ARC
8
DEFAULT_255_2_778
10
6.1966483
20
-0.3778847
40
0.3499323
50
36.6859754
51
75.4826902
0
ARC
8
DEFAULT_255_2_778
10
6.1768211
20
-0.3872685
40
0.3714634
50
358.5566595
51
36.0195865
0
ARC
8
DEFAULT_255_2_778
10
6.1219308
20
-0.4113866
40
0.4264914
50
325.7133062
51
1.9834969
0
ARC
8
DEFAULT_255_2_778
10
6.1684882
20
-0.4317452
40
0.3766731
50
311.254174
51
324.2823404
0
ARC
8
DEFAULT_255_2_778
10
6.1154968
20
-0.3570246
40
0.4678851
50
277.3652938
51
310.0990361
0
ARC
8
DEFAULT_255_2_778
10
6.0500239
20
-0.0134599
40
0.8172752
50
269.715564
51
278.8299282
0
ARC
8
DEFAULT_255_2_778
10
6.063087
20
-0.3315229
40
0.3373691
50
267.7202148
51
301.4100481
0
ARC
8
DEFAULT_255_2_778
10
6.1013334
20
-0.4105312
40
0.250152
50
303.3651241
51
311.8303911
0
ARC
8
DEFAULT_255_2_778
10
6.0967512
20
-0.4122506
40
0.2519681
50
312.8675861
51
3.0315471
0
ARC
8
DEFAULT_255_2_778
10
6.0491653
20
-0.3858999
40
0.2994848
50
357.5073245
51
30.3250153
0
ARC
8
DEFAULT_255_2_778
10
6.112394
20
-0.3698304
40
0.2374811
50
34.684921
51
84.2883901
0
ARC
8
DEFAULT_255_2_778
10
6.0559331
20
-0.6385192
40
0.5113033
50
80.9875435
51
90.3436252
0
ARC
8
DEFAULT_255_2_778
10
6.0354988
20
0.3594602
40
0.3276689
50
267.6156097
51
302.6710842
0
ARC
8
DEFAULT_255_2_778
10
6.0715395
20
0.2873201
40
0.2476369
50
304.6621707
51
309.8037155
0
ARC
8
DEFAULT_255_2_778
10
6.0903155
20
0.264459
40
0.2180546
50
309.8589666
51
2.4749034
0
ARC
8
DEFAULT_255_2_778
10
6.0665586
20
0.2869941
40
0.241964
50
356.8919425
51
34.3711127
0
ARC
8
DEFAULT_255_2_778
10
6.1339407
20
0.323174
40
0.1661228
50
37.1927573
51
52.1090634
0
ARC
8
DEFAULT_255_2_778
10
6.0701242
20
0.2203794
40
0.2867243
50
54.661646
51
85.328725
0
ARC
8
DEFAULT_255_2_778
10
6.0185436
20
-0.1113595
40
0.6220406
50
83.0813393
51
90.255784
0
LINE
8
DEFAULT_255_2_778
10
6.0456667
20
-0.830725
11
5.5236667
21
-0.830725
0
LINE
8
DEFAULT_255_2_778
10
5.5236667
20
-0.830725
11
5.5236667
21
0.674175
0
LINE
8
DEFAULT_255_2_778
10
5.5236667
20
0.674175
11
6.0155667
21
0.674175
0
LINE
8
DEFAULT_255_2_778
10
6.0459667
20
-0.830725
11
6.0456667
21
-0.830725
0
LINE
8
DEFAULT_255_2_778
10
6.0528667
20
-0.127025
11
5.7220667
21
-0.127025
0
LINE
8
DEFAULT_255_2_778
10
5.7220667
20
-0.127025
11
5.7220667
21
-0.668625
0
LINE
8
DEFAULT_255_2_778
10
5.7220667
20
-0.668625
11
6.0496667
21
-0.668625
0
LINE
8
DEFAULT_255_2_778
10
6.0528667
20
-0.127225
11
6.0528667
21
-0.127025
0
LINE
8
DEFAULT_255_2_778
10
5.7220667
20
0.510675
11
5.7220667
21
0.032075
0
LINE
8
DEFAULT_255_2_778
10
5.7220667
20
0.032075
11
6.0218667
21
0.032075
0
LINE
8
DEFAULT_255_2_778
10
6.0157667
20
0.510675
11
5.7223667
21
0.510675
0
LINE
8
DEFAULT_255_2_778
10
5.7223667
20
0.510675
11
5.7220667
21
0.510675
0
ENDSEC
0
EOF