0
SECTION
2
HEADER
9
$MEASUREMENT
70
1
0
ENDSEC
0
SECTION
2
TABLES
0
TABLE
2
LTYPE
0
LTYPE
72
65
70
64
2
CONTINUOUS
3
______
73
0
40
0
0
ENDTAB
0
TABLE
2
LAYER
0
LAYER
2
DEFAULT_255_2_778
70
0
62
255
6
CONTINUOUS
0
ENDTAB
0
ENDSEC
0
SECTION
2
ENTITIES
0
ARC
8
DEFAULT_255_2_778
10
6.5550564
20
3.0620012
40
2.4417506
50
192.9799759
51
205.4868995
0
ARC
8
DEFAULT_255_2_778
10
6.0318539
20
2.8077583
40
1.8600675
50
205.3524609
51
220.2979036
0
ARC
8
DEFAULT_255_2_778
10
5.5941275
20
2.4286093
40
1.2810124
50
220.0264494
51
241.5831683
0
ARC
8
DEFAULT_255_2_778
10
5.4280123
20
2.1299127
40
0.939263
50
241.8244422
51
269.7549943
0
ARC
8
DEFAULT_255_2_778
10
5.4066241
20
2.1938272
40
1.0033193
50
270.9920847
51
311.7971503
0
ARC
8
DEFAULT_255_2_778
10
5.0508811
20
2.6333872
40
1.5683619
50
310.783143
51
327.8084223
0
ARC
8
DEFAULT_255_2_778
10
4.5491328
20
2.956546
40
2.1651494
50
327.6450759
51
341.1384731
0
ARC
8
DEFAULT_255_2_778
10
4.1641391
20
3.0993275
40
2.5756507
50
340.9014941
51
346.854439
0
LINE
8
DEFAULT_255_2_778
10
4.1010834
20
1.1907
11
6.7468834
21
1.1907
0
LINE
8
DEFAULT_255_2_778
10
5.424
20
1.1906749
11
5.424
21
-2.7780251
0
ENDSEC
0
EOF