0
SECTION
2
HEADER
9
$MEASUREMENT
70
1
0
ENDSEC
0
SECTION
2
TABLES
0
TABLE
2
LTYPE
0
LTYPE
72
65
70
64
2
CONTINUOUS
3
______
73
0
40
0
0
ENDTAB
0
TABLE
2
LAYER
0
LAYER
2
DEFAULT_255_2_778
70
0
62
255
6
CONTINUOUS
0
ENDTAB
0
ENDSEC
0
SECTION
2
ENTITIES
0
ARC
8
DEFAULT_255_2_778
10
5.4341952
20
3.8401268
40
2.6560309
50
160.7095027
51
180.0775207
0
ARC
8
DEFAULT_255_2_778
10
5.4181206
20
3.8420241
40
2.6402344
50
102.0301591
51
160.6331218
0
ARC
8
DEFAULT_255_2_778
10
5.4222006
20
3.8066408
40
2.6756931
50
89.9621802
51
101.9576865
0
ARC
8
DEFAULT_255_2_778
10
5.4276411
20
3.8269235
40
2.6554123
50
70.3567975
51
90.0792807
0
ARC
8
DEFAULT_255_2_778
10
5.4294767
20
3.8422929
40
2.6403224
50
11.9023555
51
70.2821965
0
ARC
8
DEFAULT_255_2_778
10
5.3939547
20
3.8382699
40
2.6759126
50
359.9628159
51
11.829777
0
ARC
8
DEFAULT_255_2_778
10
5.4146283
20
3.8328623
40
2.655241
50
340.3554002
51
0.0792127
0
ARC
8
DEFAULT_255_2_778
10
5.4297203
20
3.8311583
40
2.6404568
50
281.9019784
51
340.2801285
0
ARC
8
DEFAULT_255_2_778
10
5.4257012
20
3.8666109
40
2.6759781
50
269.962864
51
281.8296308
0
ARC
8
DEFAULT_255_2_778
10
5.4202903
20
3.8457704
40
2.6551397
50
250.3550189
51
270.0793355
0
ARC
8
DEFAULT_255_2_778
10
5.4186162
20
3.8306794
40
2.6403665
50
191.9001656
51
250.2791382
0
ARC
8
DEFAULT_255_2_778
10
5.4543473
20
3.8347979
40
2.676181
50
179.9628467
51
191.8287004
0
LINE
8
DEFAULT_255_2_778
10
2.7781667
20
3.8365333
11
2.7781667
21
3.8365333
0
LINE
8
DEFAULT_255_2_778
10
5.424
20
-2.7780251
11
5.424
21
1.1906749
0
LINE
8
DEFAULT_255_2_778
10
5.424
20
10.4510749
11
5.424
21
6.4823749
0
LINE
8
DEFAULT_255_2_778
10
3.5719167
20
5.6885833
11
7.2761167
21
1.9843833
0
LINE
8
DEFAULT_255_2_778
10
7.2761167
20
5.6885833
11
3.5719167
21
1.9843833
0
ENDSEC
0
EOF