0
SECTION
2
HEADER
9
$MEASUREMENT
70
1
0
ENDSEC
0
SECTION
2
TABLES
0
TABLE
2
LTYPE
0
LTYPE
72
65
70
64
2
CONTINUOUS
3
______
73
0
40
0
0
ENDTAB
0
TABLE
2
LAYER
0
LAYER
2
DEFAULT_255_2_778
70
0
62
255
6
CONTINUOUS
0
ENDTAB
0
ENDSEC
0
SECTION
2
ENTITIES
0
LINE
8
DEFAULT_255_2_778
10
4.7624417
20
-0.7936834
11
3.4395417
21
-2.1165834
0
LINE
8
DEFAULT_255_2_778
10
3.4395417
20
-2.1165834
11
4.7624417
21
-3.4394834
0
LINE
8
DEFAULT_255_2_778
10
4.7624667
20
-0.7936834
11
10.0541667
21
-0.7936834
0
LINE
8
DEFAULT_255_2_778
10
10.0541667
20
-0.7936834
11
10.0541667
21
-3.4394834
0
LINE
8
DEFAULT_255_2_778
10
10.0541667
20
-3.4394834
11
4.7624667
21
-3.4394834
0
LINE
8
DEFAULT_255_2_778
10
4.7624667
20
-3.4394834
11
4.7624667
21
-0.7936834
0
LINE
8
DEFAULT_255_2_778
10
7.4083
20
3.1749749
11
7.4083
21
-0.7937251
0
LINE
8
DEFAULT_255_2_778
10
6.2012302
20
-2.0110573
11
6.2012302
21
-2.1732573
0
LINE
8
DEFAULT_255_2_778
10
6.2012302
20
-2.1732573
11
5.5490302
21
-2.1732573
0
LINE
8
DEFAULT_255_2_778
10
5.5490302
20
-2.1732573
11
5.5490302
21
-2.7066573
0
LINE
8
DEFAULT_255_2_778
10
5.5490302
20
-2.7066573
11
6.3065302
21
-2.7066573
0
LINE
8
DEFAULT_255_2_778
10
6.3065302
20
-2.7066573
11
6.3065302
21
-2.8688573
0
LINE
8
DEFAULT_255_2_778
10
6.3065302
20
-2.8688573
11
5.3506302
21
-2.8688573
0
LINE
8
DEFAULT_255_2_778
10
5.3506302
20
-2.8688573
11
5.3506302
21
-1.3641573
0
LINE
8
DEFAULT_255_2_778
10
5.3506302
20
-1.3641573
11
6.2962302
21
-1.3641573
0
LINE
8
DEFAULT_255_2_778
10
6.2962302
20
-1.3641573
11
6.2962302
21
-1.5273573
0
LINE
8
DEFAULT_255_2_778
10
6.2962302
20
-1.5273573
11
5.5490302
21
-1.5273573
0
LINE
8
DEFAULT_255_2_778
10
5.5490302
20
-1.5273573
11
5.5490302
21
-2.0110573
0
LINE
8
DEFAULT_255_2_778
10
5.5490302
20
-2.0110573
11
6.2012302
21
-2.0110573
0
LINE
8
DEFAULT_255_2_778
10
6.2012302
20
-2.0110573
11
6.2012302
21
-2.0110573
0
LINE
8
DEFAULT_255_2_778
10
6.6817396
20
-1.3641573
11
7.0445396
21
-1.9409573
0
LINE
8
DEFAULT_255_2_778
10
7.0445396
20
-1.9409573
11
7.4051396
21
-1.3641573
0
LINE
8
DEFAULT_255_2_778
10
7.4051396
20
-1.3641573
11
7.6387396
21
-1.3641573
0
LINE
8
DEFAULT_255_2_778
10
7.6387396
20
-1.3641573
11
7.1633396
21
-2.1102573
0
LINE
8
DEFAULT_255_2_778
10
7.1633396
20
-2.1102573
11
7.6501396
21
-2.8688573
0
LINE
8
DEFAULT_255_2_778
10
7.6501396
20
-2.8688573
11
7.4144396
21
-2.8688573
0
LINE
8
DEFAULT_255_2_778
10
7.4144396
20
-2.8688573
11
7.0445396
21
-2.2817573
0
LINE
8
DEFAULT_255_2_778
10
7.0445396
20
-2.2817573
11
6.6725396
21
-2.8688573
0
LINE
8
DEFAULT_255_2_778
10
6.6725396
20
-2.8688573
11
6.4378396
21
-2.8688573
0
LINE
8
DEFAULT_255_2_778
10
6.4378396
20
-2.8688573
11
6.9257396
21
-2.1102573
0
LINE
8
DEFAULT_255_2_778
10
6.9257396
20
-2.1102573
11
6.4492396
21
-1.3641573
0
LINE
8
DEFAULT_255_2_778
10
6.4492396
20
-1.3641573
11
6.6817396
21
-1.3641573
0
LINE
8
DEFAULT_255_2_778
10
6.6817396
20
-1.3641573
11
6.6817396
21
-1.3641573
0
LINE
8
DEFAULT_255_2_778
10
8.0935813
20
-1.364125
11
8.0935813
21
-2.869025
0
LINE
8
DEFAULT_255_2_778
10
8.0935813
20
-2.869025
11
7.8951813
21
-2.869025
0
LINE
8
DEFAULT_255_2_778
10
7.8951813
20
-2.869025
11
7.8951813
21
-1.364425
0
LINE
8
DEFAULT_255_2_778
10
7.8951813
20
-1.364425
11
8.0935813
21
-1.364425
0
LINE
8
DEFAULT_255_2_778
10
8.0935813
20
-1.364425
11
8.0935813
21
-1.364125
0
LINE
8
DEFAULT_255_2_778
10
9.4659945
20
-1.3641573
11
9.4659945
21
-1.5273573
0
LINE
8
DEFAULT_255_2_778
10
9.4659945
20
-1.5273573
11
8.9823945
21
-1.5273573
0
LINE
8
DEFAULT_255_2_778
10
8.9823945
20
-1.5273573
11
8.9823945
21
-2.8688573
0
LINE
8
DEFAULT_255_2_778
10
8.9823945
20
-2.8688573
11
8.7849945
21
-2.8688573
0
LINE
8
DEFAULT_255_2_778
10
8.7849945
20
-2.8688573
11
8.7849945
21
-1.5273573
0
LINE
8
DEFAULT_255_2_778
10
8.7849945
20
-1.5273573
11
8.3023945
21
-1.5273573
0
LINE
8
DEFAULT_255_2_778
10
8.3023945
20
-1.5273573
11
8.3023945
21
-1.3641573
0
LINE
8
DEFAULT_255_2_778
10
8.3023945
20
-1.3641573
11
9.4659945
21
-1.3641573
0
LINE
8
DEFAULT_255_2_778
10
9.4659945
20
-1.3641573
11
9.4659945
21
-1.3641573
0
ENDSEC
0
EOF