0
SECTION
2
HEADER
9
$MEASUREMENT
70
1
0
ENDSEC
0
SECTION
2
TABLES
0
TABLE
2
LTYPE
0
LTYPE
72
65
70
64
2
CONTINUOUS
3
______
73
0
40
0
0
ENDTAB
0
TABLE
2
LAYER
0
LAYER
2
DEFAULT_255_2_778
70
0
62
255
6
CONTINUOUS
0
ENDTAB
0
ENDSEC
0
SECTION
2
ENTITIES
0
LINE
8
DEFAULT_255_2_778
10
5.424
20
1.1906749
11
5.424
21
-2.7780251
0
LINE
8
DEFAULT_255_2_778
10
4.1010834
20
-2.7781
11
6.7468834
21
-2.7781
0
LINE
8
DEFAULT_255_2_778
10
4.7625417
20
-3.4395
11
6.0854417
21
-3.4395
0
LINE
8
DEFAULT_255_2_778
10
5.0932708
20
-4.101
11
5.7547708
21
-4.101
0
ARC
8
DEFAULT_255_2_778
10
5.4514745
20
-4.0956066
40
2.6733184
50
180.0021817
51
180.1151817
0
ARC
8
DEFAULT_255_2_778
10
5.4187201
20
-4.0957433
40
2.6405639
50
134.9999396
51
179.9992423
0
ARC
8
DEFAULT_255_2_778
10
5.418724
20
-4.0957393
40
2.6405638
50
90.0007577
51
135.0000604
0
ARC
8
DEFAULT_255_2_778
10
5.4185873
20
-4.1284938
40
2.6733183
50
89.8848183
51
89.9978183
0
ARC
8
DEFAULT_255_2_778
10
5.4293362
20
-4.1289672
40
2.6737918
50
90.002178
51
90.1151741
0
ARC
8
DEFAULT_255_2_778
10
5.429275
20
-4.095797
40
2.6406215
50
45.0004575
51
90.0008774
0
ARC
8
DEFAULT_255_2_778
10
5.4293029
20
-4.0957433
40
2.6405638
50
0.0007577
51
45.0000604
0
ARC
8
DEFAULT_255_2_778
10
5.3965484
20
-4.0956066
40
2.6733183
50
359.8848183
51
359.9978183
0
ENDSEC
0
EOF