0
SECTION
2
HEADER
9
$MEASUREMENT
70
1
0
ENDSEC
0
SECTION
2
TABLES
0
TABLE
2
LTYPE
0
LTYPE
72
65
70
64
2
CONTINUOUS
3
______
73
0
40
0
0
ENDTAB
0
TABLE
2
LAYER
0
LAYER
2
DEFAULT_255_2_778
70
0
62
255
6
CONTINUOUS
0
ENDTAB
0
ENDSEC
0
SECTION
2
ENTITIES
0
ARC
8
DEFAULT_255_2_778
10
7.4184952
20
3.8401268
40
2.6560309
50
160.7095027
51
180.0775207
0
ARC
8
DEFAULT_255_2_778
10
7.4024206
20
3.8420241
40
2.6402344
50
102.0301591
51
160.6331218
0
ARC
8
DEFAULT_255_2_778
10
7.4065006
20
3.8066408
40
2.6756931
50
89.9621802
51
101.9576865
0
ARC
8
DEFAULT_255_2_778
10
7.4119411
20
3.8269235
40
2.6554123
50
70.3567975
51
90.0792807
0
ARC
8
DEFAULT_255_2_778
10
7.4137767
20
3.8422929
40
2.6403224
50
11.9023555
51
70.2821965
0
ARC
8
DEFAULT_255_2_778
10
7.3782547
20
3.8382699
40
2.6759126
50
359.9628159
51
11.829777
0
ARC
8
DEFAULT_255_2_778
10
7.3989283
20
3.8328623
40
2.655241
50
340.3554002
51
0.0792127
0
ARC
8
DEFAULT_255_2_778
10
7.4140203
20
3.8311583
40
2.6404568
50
281.9019784
51
340.2801285
0
ARC
8
DEFAULT_255_2_778
10
7.4100012
20
3.8666109
40
2.6759781
50
269.962864
51
281.8296308
0
ARC
8
DEFAULT_255_2_778
10
7.4045903
20
3.8457704
40
2.6551397
50
250.3550189
51
270.0793355
0
ARC
8
DEFAULT_255_2_778
10
7.4029162
20
3.8306794
40
2.6403665
50
191.9001656
51
250.2791382
0
ARC
8
DEFAULT_255_2_778
10
7.4386473
20
3.8347979
40
2.676181
50
179.9628467
51
191.8287004
0
LINE
8
DEFAULT_255_2_778
10
4.7624667
20
3.8365333
11
4.7624667
21
3.8365333
0
LINE
8
DEFAULT_255_2_778
10
5.9970448
20
5.2475448
11
8.8193448
21
5.2475448
0
LINE
8
DEFAULT_255_2_778
10
8.8193448
20
5.2475448
11
8.8193448
21
4.8948448
0
LINE
8
DEFAULT_255_2_778
10
8.8193448
20
4.8948448
11
5.9970448
21
4.8948448
0
LINE
8
DEFAULT_255_2_778
10
5.9970448
20
4.8948448
11
5.9970448
21
5.2475448
0
ARC
8
DEFAULT_255_2_778
10
7.730686
20
3.8962958
40
1.9451198
50
190.9220054
51
200.3700663
0
ARC
8
DEFAULT_255_2_778
10
7.5094516
20
3.8139809
40
1.7090683
50
200.3647225
51
212.1167624
0
ARC
8
DEFAULT_255_2_778
10
7.3947746
20
3.7427375
40
1.5740646
50
212.1395786
51
227.404034
0
ARC
8
DEFAULT_255_2_778
10
7.3928626
20
3.7462347
40
1.5753495
50
227.5413131
51
252.2877269
0
ARC
8
DEFAULT_255_2_778
10
7.4203813
20
3.8252041
40
1.6589493
50
252.2121315
51
269.5827409
0
ARC
8
DEFAULT_255_2_778
10
7.4213985
20
3.8417581
40
1.6755104
50
269.5520817
51
269.9999915
0
ARC
8
DEFAULT_255_2_778
10
7.4303635
20
3.7717922
40
1.6055696
50
269.6800675
51
308.6096751
0
ARC
8
DEFAULT_255_2_778
10
7.4703433
20
3.7042349
40
1.5278705
50
309.0190213
51
326.0003445
0
ARC
8
DEFAULT_255_2_778
10
7.3820671
20
3.7626062
40
1.6336958
50
326.0343901
51
338.3906825
0
ARC
8
DEFAULT_255_2_778
10
7.1880241
20
3.8395761
40
1.8424469
50
338.3876109
51
348.1766219
0
ARC
8
DEFAULT_255_2_778
10
7.0418227
20
3.8742679
40
1.9926586
50
348.0616132
51
348.692224
0
LINE
8
DEFAULT_255_2_778
10
7.4083
20
10.4510603
11
7.4083
21
5.2255603
0
LINE
8
DEFAULT_255_2_778
10
7.4083
20
-2.7780313
11
7.4083
21
2.1828687
0
LINE
8
DEFAULT_255_2_778
10
4.2514843
20
6.764713
11
4.7116843
21
6.192313
0
LINE
8
DEFAULT_255_2_778
10
4.7116843
20
6.192313
11
3.9858843
21
6.304613
0
LINE
8
DEFAULT_255_2_778
10
3.9858843
20
6.304613
11
4.2514843
21
6.764713
0
LINE
8
DEFAULT_255_2_778
10
3.5201733
20
6.8792297
11
4.1670733
21
6.5057297
0
LINE
8
DEFAULT_255_2_778
10
4.1708843
20
5.843313
11
4.6310843
21
5.270913
0
LINE
8
DEFAULT_255_2_778
10
4.6310843
20
5.270913
11
3.9052843
21
5.383213
0
LINE
8
DEFAULT_255_2_778
10
3.9052843
20
5.383213
11
4.1708843
21
5.843313
0
LINE
8
DEFAULT_255_2_778
10
3.4395733
20
5.9578297
11
4.0864733
21
5.5843297
0
ENDSEC
0
EOF