0
SECTION
2
HEADER
9
$MEASUREMENT
70
1
0
ENDSEC
0
SECTION
2
TABLES
0
TABLE
2
LTYPE
0
LTYPE
72
65
70
64
2
CONTINUOUS
3
______
73
0
40
0
0
ENDTAB
0
TABLE
2
LAYER
0
LAYER
2
DEFAULT_255_2_778
70
0
62
255
6
CONTINUOUS
0
LAYER
2
DEFAULT_255_2_778_3
70
0
62
255
6
CONTINUOUS
0
ENDTAB
0
ENDSEC
0
SECTION
2
ENTITIES
0
LINE
8
DEFAULT_255_2_778
10
9.3927
20
10.4510749
11
9.3927
21
6.4823749
0
LINE
8
DEFAULT_255_2_778
10
8.0697417
20
6.4823082
11
9.3926417
21
1.1906082
0
LINE
8
DEFAULT_255_2_778
10
9.3926417
20
1.1906082
11
9.3926417
21
-2.7780918
0
LINE
8
DEFAULT_255_2_778_3
10
8.5989365
20
3.8365
11
5.4570365
21
3.8365
0
ARC
8
DEFAULT_255_2_778
10
5.4218358
20
3.830299
40
1.316684
50
237.3211861
51
270.0916398
0
ARC
8
DEFAULT_255_2_778
10
5.4237474
20
3.836349
40
1.3228095
50
186.5640329
51
237.3929792
0
ARC
8
DEFAULT_255_2_778
10
5.4380277
20
3.8362504
40
1.336986
50
179.9885895
51
186.4898767
0
ARC
8
DEFAULT_255_2_778
10
5.417724
20
3.8386226
40
1.316684
50
147.3211861
51
180.0916398
0
ARC
8
DEFAULT_255_2_778
10
5.4237741
20
3.8367109
40
1.3228095
50
96.5640329
51
147.3929792
0
ARC
8
DEFAULT_255_2_778
10
5.4236754
20
3.8224306
40
1.336986
50
89.9885895
51
96.4898767
0
LINE
8
DEFAULT_255_2_778
10
5.4239417
20
5.1594166
11
5.4239417
21
2.5136166
0
ENDSEC
0
EOF