0
SECTION
2
HEADER
9
$MEASUREMENT
70
1
0
ENDSEC
0
SECTION
2
TABLES
0
TABLE
2
LTYPE
0
LTYPE
72
65
70
64
2
CONTINUOUS
3
______
73
0
40
0
0
ENDTAB
0
TABLE
2
LAYER
0
LAYER
2
DEFAULT_255_2_778
70
0
62
255
6
CONTINUOUS
0
LAYER
2
DEFAULT_255_2_778_4
70
0
62
255
6
CONTINUOUS
0
ENDTAB
0
ENDSEC
0
SECTION
2
ENTITIES
0
LINE
8
DEFAULT_255_2_778
10
11.774
20
10.4510749
11
11.774
21
6.4823749
0
LINE
8
DEFAULT_255_2_778
10
11.7739417
20
-2.7780918
11
11.7739417
21
1.1906082
0
LINE
8
DEFAULT_255_2_778
10
11.7739417
20
1.1906082
11
10.4510417
21
6.4823082
0
LINE
8
DEFAULT_255_2_778_4
10
11.1125542
20
3.8365
11
7.8052542
21
3.8365
0
LINE
8
DEFAULT_255_2_778
10
4.3656084
20
4.63025
11
7.8052084
21
4.63025
0
LINE
8
DEFAULT_255_2_778
10
7.8052084
20
4.63025
11
7.8052084
21
3.04275
0
LINE
8
DEFAULT_255_2_778
10
7.8052084
20
3.04275
11
4.3656084
21
3.04275
0
LINE
8
DEFAULT_255_2_778
10
4.3656084
20
3.04275
11
4.3656084
21
4.63025
0
LINE
8
DEFAULT_255_2_778
10
6.2177
20
5.4240385
11
6.2177
21
4.6633385
0
LINE
8
DEFAULT_255_2_778
10
6.2177
20
3.0096385
11
6.2177
21
2.2489385
0
ENDSEC
0
EOF