0
SECTION
2
HEADER
9
$MEASUREMENT
70
1
0
ENDSEC
0
SECTION
2
TABLES
0
TABLE
2
LTYPE
0
LTYPE
72
65
70
64
2
CONTINUOUS
3
______
73
0
40
0
0
ENDTAB
0
TABLE
2
LAYER
0
LAYER
2
DEFAULT_255_2_778
70
0
62
255
6
CONTINUOUS
0
LAYER
2
DEFAULT_255_2_778_4
70
0
62
255
6
CONTINUOUS
0
ENDTAB
0
ENDSEC
0
SECTION
2
ENTITIES
0
LINE
8
DEFAULT_255_2_778
10
10.7844
20
10.4510749
11
10.7844
21
6.4823749
0
LINE
8
DEFAULT_255_2_778
10
10.7820417
20
-2.7780918
11
10.7844417
21
1.1906082
0
LINE
8
DEFAULT_255_2_778
10
10.7844417
20
1.1906082
11
9.4615417
21
6.4823082
0
LINE
8
DEFAULT_255_2_778_4
10
10.1229542
20
3.8365
11
6.8156542
21
3.8365
0
ARC
8
DEFAULT_255_2_778
10
8.06475
20
3.3116821
40
2.7098379
50
156.097546
51
165.0979016
0
ARC
8
DEFAULT_255_2_778
10
7.5931662
20
3.5228524
40
2.1931375
50
147.4561072
51
156.1493512
0
ARC
8
DEFAULT_255_2_778
10
7.0651111
20
3.8631172
40
1.5649564
50
137.402553
51
147.55757
0
ARC
8
DEFAULT_255_2_778
10
6.6342075
20
4.2639327
40
0.976473
50
123.8561799
51
137.6018825
0
ARC
8
DEFAULT_255_2_778
10
6.4579068
20
4.515078
40
0.6697247
50
117.1033831
51
123.3008298
0
ARC
8
DEFAULT_255_2_778
10
6.3899899
20
4.6516737
40
0.5171895
50
105.35086
51
117.2999063
0
ARC
8
DEFAULT_255_2_778
10
6.3569342
20
4.7718927
40
0.3925087
50
90.2703557
51
105.34344
0
ARC
8
DEFAULT_255_2_778
10
6.3556338
20
4.8242275
40
0.34017
50
75.0389376
51
90.0929137
0
ARC
8
DEFAULT_255_2_778
10
6.3334626
20
4.7783188
40
0.3903635
50
34.1284862
51
73.6344966
0
ARC
8
DEFAULT_255_2_778
10
6.0585596
20
4.5738502
40
0.7327943
50
18.9220666
51
35.3030204
0
ARC
8
DEFAULT_255_2_778
10
5.5919171
20
4.4080485
40
1.2279985
50
7.8800741
51
19.1795328
0
ARC
8
DEFAULT_255_2_778
10
5.0259197
20
4.3242347
40
1.8001506
50
359.8015065
51
8.0527135
0
ARC
8
DEFAULT_255_2_778
10
4.5529596
20
4.3213405
40
2.2731022
50
354.2373382
51
359.9157579
0
ARC
8
DEFAULT_255_2_778
10
4.2097238
20
4.355268
40
2.6180101
50
348.5237128
51
354.2528233
0
ARC
8
DEFAULT_255_2_778
10
4.0105663
20
4.393838
40
2.8208604
50
344.9878173
51
348.5608017
0
ARC
8
DEFAULT_255_2_778
10
4.1173251
20
4.3598268
40
2.7089405
50
336.0987207
51
345.0977429
0
ARC
8
DEFAULT_255_2_778
10
4.5880755
20
4.1490449
40
2.1931594
50
327.4609063
51
336.1503455
0
ARC
8
DEFAULT_255_2_778
10
5.1155538
20
3.8092238
40
1.5657035
50
317.4151532
51
327.5619145
0
ARC
8
DEFAULT_255_2_778
10
5.5463607
20
3.4086788
40
0.9774752
50
303.8855005
51
317.6140228
0
ARC
8
DEFAULT_255_2_778
10
5.7228667
20
3.1574918
40
0.6705744
50
297.1431757
51
303.3316917
0
ARC
8
DEFAULT_255_2_778
10
5.7910312
20
3.0206112
40
0.517674
50
285.377962
51
297.3412449
0
ARC
8
DEFAULT_255_2_778
10
5.8242548
20
2.899994
40
0.3925648
50
270.2718819
51
285.3709316
0
ARC
8
DEFAULT_255_2_778
10
5.8255635
20
2.8474874
40
0.3400543
50
255.0352121
51
270.0933503
0
ARC
8
DEFAULT_255_2_778
10
5.8477445
20
2.8935174
40
0.3903674
50
214.1289976
51
253.6344726
0
ARC
8
DEFAULT_255_2_778
10
6.1226337
20
3.0979804
40
0.7327837
50
198.9226873
51
215.3035544
0
ARC
8
DEFAULT_255_2_778
10
6.5892195
20
3.2637685
40
1.22793
50
187.88054
51
199.1801762
0
ARC
8
DEFAULT_255_2_778
10
7.1550802
20
3.3475673
40
1.7999445
50
179.8015372
51
188.0531749
0
ARC
8
DEFAULT_255_2_778
10
7.6278486
20
3.3504612
40
2.2727046
50
174.2368357
51
179.915778
0
ARC
8
DEFAULT_255_2_778
10
7.9708603
20
3.3165527
40
2.6173876
50
168.5224294
51
174.2523115
0
ARC
8
DEFAULT_255_2_778
10
8.1697706
20
3.2780275
40
2.8199867
50
164.9858543
51
168.5595137
0
LINE
8
DEFAULT_255_2_778
10
5.4460529
20
4.0085662
11
5.4460529
21
4.0085662
0
LINE
8
DEFAULT_255_2_778
10
6.7587313
20
3.8365
11
6.0904313
21
3.8365
0
ENDSEC
0
EOF