0
SECTION
2
HEADER
9
$MEASUREMENT
70
1
0
ENDSEC
0
SECTION
2
TABLES
0
TABLE
2
LTYPE
0
LTYPE
72
65
70
64
2
CONTINUOUS
3
______
73
0
40
0
0
ENDTAB
0
TABLE
2
LAYER
0
LAYER
2
DEFAULT_255_2_778
70
0
62
255
6
CONTINUOUS
0
ENDTAB
0
ENDSEC
0
SECTION
2
ENTITIES
0
LINE
8
DEFAULT_255_2_778
10
2.7780834
20
5.1594166
11
5.4238834
21
5.1594166
0
LINE
8
DEFAULT_255_2_778
10
5.4238834
20
5.1594166
11
5.4238834
21
2.5136166
0
LINE
8
DEFAULT_255_2_778
10
5.4238834
20
2.5136166
11
2.7780834
21
2.5136166
0
LINE
8
DEFAULT_255_2_778
10
2.7780834
20
2.5136166
11
2.7780834
21
5.1594166
0
LINE
8
DEFAULT_255_2_778
10
8.0698
20
2.5135333
11
8.0698
21
-2.7781667
0
LINE
8
DEFAULT_255_2_778
10
8.0698
20
5.1593333
11
8.0698
21
10.4510333
0
LINE
8
DEFAULT_255_2_778
10
5.4239667
20
5.1594166
11
10.7156667
21
5.1594166
0
LINE
8
DEFAULT_255_2_778
10
10.7156667
20
5.1594166
11
10.7156667
21
2.5136166
0
LINE
8
DEFAULT_255_2_778
10
10.7156667
20
2.5136166
11
5.4239667
21
2.5136166
0
LINE
8
DEFAULT_255_2_778
10
5.4239667
20
2.5136166
11
5.4239667
21
5.1594166
0
ENDSEC
0
EOF