0
SECTION
2
HEADER
9
$MEASUREMENT
70
1
0
ENDSEC
0
SECTION
2
TABLES
0
TABLE
2
LTYPE
0
LTYPE
72
65
70
64
2
CONTINUOUS
3
______
73
0
40
0
0
ENDTAB
0
TABLE
2
LAYER
0
LAYER
2
DEFAULT_255_2_778
70
0
62
255
6
CONTINUOUS
0
ENDTAB
0
ENDSEC
0
SECTION
2
ENTITIES
0
LINE
8
DEFAULT_255_2_778
10
5.424
20
10.4510333
11
5.424
21
5.1593333
0
LINE
8
DEFAULT_255_2_778
10
5.424
20
-2.7781667
11
5.424
21
2.5135333
0
LINE
8
DEFAULT_255_2_778
10
2.7781667
20
5.1594166
11
8.0698667
21
5.1594166
0
LINE
8
DEFAULT_255_2_778
10
8.0698667
20
5.1594166
11
8.0698667
21
2.5136166
0
LINE
8
DEFAULT_255_2_778
10
8.0698667
20
2.5136166
11
2.7781667
21
2.5136166
0
LINE
8
DEFAULT_255_2_778
10
2.7781667
20
2.5136166
11
2.7781667
21
5.1594166
0
LINE
8
DEFAULT_255_2_778
10
6.4822708
20
4.4979583
11
7.1437708
21
3.8364583
0
LINE
8
DEFAULT_255_2_778
10
7.1437708
20
3.8364583
11
6.4822708
21
3.1750583
0
LINE
8
DEFAULT_255_2_778
10
4.3656
20
4.4979583
11
4.3656
21
3.1750583
0
LINE
8
DEFAULT_255_2_778
10
4.0348708
20
4.498
11
4.6963708
21
4.498
0
LINE
8
DEFAULT_255_2_778
10
4.0348708
20
3.175
11
4.6963708
21
3.175
0
LINE
8
DEFAULT_255_2_778
10
5.8208708
20
4.4979583
11
6.4823708
21
3.8364583
0
LINE
8
DEFAULT_255_2_778
10
6.4823708
20
3.8364583
11
5.8208708
21
3.1750583
0
ENDSEC
0
EOF