0
SECTION
2
HEADER
9
$MEASUREMENT
70
1
0
ENDSEC
0
SECTION
2
TABLES
0
TABLE
2
LTYPE
0
LTYPE
72
65
70
64
2
CONTINUOUS
3
______
73
0
40
0
0
ENDTAB
0
TABLE
2
LAYER
0
LAYER
2
DEFAULT_255_2_778
70
0
62
255
6
CONTINUOUS
0
ENDTAB
0
ENDSEC
0
SECTION
2
ENTITIES
0
LINE
8
DEFAULT_255_2_778
10
5.424
20
10.4510333
11
5.424
21
5.1593333
0
LINE
8
DEFAULT_255_2_778
10
5.424
20
-2.7781667
11
5.424
21
2.5135333
0
LINE
8
DEFAULT_255_2_778
10
2.7781667
20
5.1594166
11
8.0698667
21
5.1594166
0
LINE
8
DEFAULT_255_2_778
10
8.0698667
20
5.1594166
11
8.0698667
21
2.5136166
0
LINE
8
DEFAULT_255_2_778
10
8.0698667
20
2.5136166
11
2.7781667
21
2.5136166
0
LINE
8
DEFAULT_255_2_778
10
2.7781667
20
2.5136166
11
2.7781667
21
5.1594166
0
LINE
8
DEFAULT_255_2_778
10
6.9784063
20
4.4979583
11
5.9862063
21
3.8364583
0
LINE
8
DEFAULT_255_2_778
10
5.9862063
20
3.8364583
11
6.9784063
21
3.1750583
0
LINE
8
DEFAULT_255_2_778
10
3.9523886
20
3.1750583
11
3.9523886
21
4.4979583
0
LINE
8
DEFAULT_255_2_778
10
3.9523886
20
4.4979583
11
4.6138886
21
4.4979583
0
LINE
8
DEFAULT_255_2_778
10
4.6138886
20
4.4979583
11
4.7791886
21
4.3325583
0
LINE
8
DEFAULT_255_2_778
10
4.7791886
20
4.3325583
11
4.7791886
21
4.0018583
0
LINE
8
DEFAULT_255_2_778
10
4.7791886
20
4.0018583
11
4.6138886
21
3.8364583
0
LINE
8
DEFAULT_255_2_778
10
4.6138886
20
3.8364583
11
3.9523886
21
3.8364583
0
ENDSEC
0
EOF