0
SECTION
2
HEADER
9
$MEASUREMENT
70
1
0
ENDSEC
0
SECTION
2
TABLES
0
TABLE
2
LTYPE
0
LTYPE
72
65
70
64
2
CONTINUOUS
3
______
73
0
40
0
0
ENDTAB
0
TABLE
2
LAYER
0
LAYER
2
DEFAULT_255_2_778
70
0
62
255
6
CONTINUOUS
0
ENDTAB
0
ENDSEC
0
SECTION
2
ENTITIES
0
LINE
8
DEFAULT_255_2_778
10
5.424
20
10.4510333
11
5.424
21
5.1593333
0
LINE
8
DEFAULT_255_2_778
10
5.424
20
-2.7781667
11
5.424
21
2.5135333
0
LINE
8
DEFAULT_255_2_778
10
2.7781667
20
5.1594166
11
8.0698667
21
5.1594166
0
LINE
8
DEFAULT_255_2_778
10
8.0698667
20
5.1594166
11
8.0698667
21
2.5136166
0
LINE
8
DEFAULT_255_2_778
10
8.0698667
20
2.5136166
11
2.7781667
21
2.5136166
0
LINE
8
DEFAULT_255_2_778
10
2.7781667
20
2.5136166
11
2.7781667
21
5.1594166
0
LINE
8
DEFAULT_255_2_778
10
5.2916875
20
4.8948333
11
5.2916875
21
4.6302333
0
LINE
8
DEFAULT_255_2_778
10
5.2916875
20
4.6302333
11
6.4822875
21
4.6302333
0
LINE
8
DEFAULT_255_2_778
10
6.4822875
20
4.6302333
11
6.4822875
21
3.0427333
0
LINE
8
DEFAULT_255_2_778
10
6.4822875
20
3.0427333
11
5.2916875
21
3.0427333
0
LINE
8
DEFAULT_255_2_778
10
5.2916875
20
3.0427333
11
5.2916875
21
2.7781333
0
ENDSEC
0
EOF