0
SECTION
2
HEADER
9
$MEASUREMENT
70
1
0
ENDSEC
0
SECTION
2
TABLES
0
TABLE
2
LTYPE
0
LTYPE
72
65
70
64
2
CONTINUOUS
3
______
73
0
40
0
0
ENDTAB
0
TABLE
2
LAYER
0
LAYER
2
DEFAULT_255_2_778
70
0
62
255
6
CONTINUOUS
0
ENDTAB
0
ENDSEC
0
SECTION
2
ENTITIES
0
ARC
8
DEFAULT_255_2_778
10
5.3569021
20
3.8398148
40
1.6527511
50
153.3293916
51
180.1133265
0
ARC
8
DEFAULT_255_2_778
10
5.3537398
20
3.8402592
40
1.6497263
50
99.1870744
51
153.2938879
0
ARC
8
DEFAULT_255_2_778
10
5.3570471
20
3.8115578
40
1.6785881
50
89.9758624
51
99.1420994
0
ARC
8
DEFAULT_255_2_778
10
5.3610341
20
3.8371715
40
1.6529775
50
63.3312497
51
90.1136889
0
ARC
8
DEFAULT_255_2_778
10
5.3615981
20
3.8405608
40
1.6496962
50
9.1872228
51
63.2959193
0
ARC
8
DEFAULT_255_2_778
10
5.3328666
20
3.8372505
40
1.6785879
50
359.9759464
51
9.1421852
0
ARC
8
DEFAULT_255_2_778
10
5.358513
20
3.8332628
40
1.6529445
50
333.3307916
51
0.1137972
0
ARC
8
DEFAULT_255_2_778
10
5.3618466
20
3.8327504
40
1.6497359
50
279.1852252
51
333.2947299
0
ARC
8
DEFAULT_255_2_778
10
5.3584602
20
3.8617547
40
1.6789093
50
269.975907
51
279.1413077
0
ARC
8
DEFAULT_255_2_778
10
5.3544821
20
3.8355606
40
1.6527181
50
243.3289334
51
270.1134347
0
ARC
8
DEFAULT_255_2_778
10
5.3540892
20
3.832454
40
1.649766
50
189.1850768
51
243.2926984
0
ARC
8
DEFAULT_255_2_778
10
5.3830636
20
3.8358373
40
1.6789094
50
179.975823
51
189.1412219
0
LINE
8
DEFAULT_255_2_778
10
3.7041542
20
3.8365458
11
3.7041542
21
3.8365458
0
ARC
8
DEFAULT_255_2_778
10
5.3621226
20
4.1822008
40
1.969387
50
80.9864622
51
90.1248483
0
ARC
8
DEFAULT_255_2_778
10
5.4028765
20
4.4381905
40
1.7101736
50
69.3558374
51
80.991329
0
ARC
8
DEFAULT_255_2_778
10
5.4452424
20
4.5544863
40
1.5864093
50
52.1983282
51
69.3068593
0
ARC
8
DEFAULT_255_2_778
10
5.2746839
20
4.3781708
40
1.8304578
50
19.0643375
51
51.3626928
0
ARC
8
DEFAULT_255_2_778
10
4.7619928
20
4.1743116
40
2.3817488
50
359.8297196
51
19.6709965
0
ARC
8
DEFAULT_255_2_778
10
4.7973197
20
4.1559326
40
2.3464388
50
336.6415792
51
0.2759399
0
ARC
8
DEFAULT_255_2_778
10
5.3543998
20
3.8959462
40
1.7320273
50
299.7601589
51
337.2306307
0
ARC
8
DEFAULT_255_2_778
10
5.4304284
20
3.8114936
40
1.6211536
50
284.9136366
51
298.909026
0
ARC
8
DEFAULT_255_2_778
10
5.3806479
20
3.9996779
40
1.8158107
50
274.5044604
51
284.9032856
0
ARC
8
DEFAULT_255_2_778
10
5.359069
20
4.2305744
40
2.0476915
50
269.965369
51
274.598993
0
LINE
8
DEFAULT_255_2_778
10
5.3578313
20
10.4510831
11
5.3578313
21
6.1515831
0
LINE
8
DEFAULT_255_2_778
10
5.3578313
20
2.1828831
11
5.3578313
21
-2.7781169
0
ENDSEC
0
EOF