0
SECTION
2
HEADER
9
$MEASUREMENT
70
1
0
ENDSEC
0
SECTION
2
TABLES
0
TABLE
2
LTYPE
0
LTYPE
72
65
70
64
2
CONTINUOUS
3
______
73
0
40
0
0
ENDTAB
0
TABLE
2
LAYER
0
LAYER
2
DEFAULT_255_2_778
70
0
62
255
6
CONTINUOUS
0
ENDTAB
0
ENDSEC
0
SECTION
2
ENTITIES
0
LINE
8
DEFAULT_255_2_778
10
4.43175
20
4.6302916
11
5.35775
21
5.5562916
0
LINE
8
DEFAULT_255_2_778
10
5.35775
20
5.5562916
11
6.01925
21
3.0427916
0
LINE
8
DEFAULT_255_2_778
10
6.01925
20
3.0427916
11
5.09325
21
2.1166916
0
LINE
8
DEFAULT_255_2_778
10
5.09325
20
2.1166916
11
4.43175
21
4.6302916
0
LINE
8
DEFAULT_255_2_778
10
5.887
20
10.4510749
11
5.887
21
6.4823749
0
LINE
8
DEFAULT_255_2_778
10
5.3578333
20
6.4823
11
6.4161333
21
6.4823
0
LINE
8
DEFAULT_255_2_778
10
5.8869417
20
-2.7780918
11
5.8869417
21
1.1906082
0
LINE
8
DEFAULT_255_2_778
10
5.8869417
20
1.1906082
11
4.5640417
21
6.4823082
0
ARC
8
DEFAULT_255_2_778
10
5.8861335
20
6.0863666
40
0.3960095
50
89.8710075
51
180.1289967
0
ARC
8
DEFAULT_255_2_778
10
5.887838
20
6.0863878
40
0.395988
50
359.8679252
51
90.1176342
0
ARC
8
DEFAULT_255_2_778
10
5.8878595
20
6.0846405
40
0.3959664
50
269.8792548
51
0.1207452
0
ARC
8
DEFAULT_255_2_778
10
5.8861123
20
6.0846621
40
0.3959881
50
179.8823802
51
270.1320647
0
LINE
8
DEFAULT_255_2_778
10
5.490125
20
6.085475
11
5.490125
21
6.085475
0
ENDSEC
0
EOF