0
SECTION
2
HEADER
9
$MEASUREMENT
70
1
0
ENDSEC
0
SECTION
2
TABLES
0
TABLE
2
LTYPE
0
LTYPE
72
65
70
64
2
CONTINUOUS
3
______
73
0
40
0
0
ENDTAB
0
TABLE
2
LAYER
0
LAYER
2
DEFAULT_255_2_778
70
0
62
255
6
CONTINUOUS
0
ENDTAB
0
ENDSEC
0
SECTION
2
ENTITIES
0
LINE
8
DEFAULT_255_2_778
10
2.7781667
20
5.1593499
11
8.0698667
21
5.1593499
0
LINE
8
DEFAULT_255_2_778
10
8.0698667
20
5.1593499
11
8.0698667
21
-2.7781501
0
LINE
8
DEFAULT_255_2_778
10
8.0698667
20
-2.7781501
11
2.7781667
21
-2.7781501
0
LINE
8
DEFAULT_255_2_778
10
2.7781667
20
-2.7781501
11
2.7781667
21
5.1593499
0
LINE
8
DEFAULT_255_2_778
10
2.7781667
20
2.5135
11
8.0698667
21
2.5135
0
LINE
8
DEFAULT_255_2_778
10
5.424
20
7.8052166
11
5.424
21
5.1594166
0
LINE
8
DEFAULT_255_2_778
10
4.0516271
20
-0.6562875
11
3.8362271
21
-0.3199875
0
LINE
8
DEFAULT_255_2_778
10
3.8362271
20
-0.3199875
11
3.7555271
21
-0.4006875
0
LINE
8
DEFAULT_255_2_778
10
3.7555271
20
-0.4006875
11
3.7555271
21
-0.6564875
0
LINE
8
DEFAULT_255_2_778
10
3.7555271
20
-0.6564875
11
3.5314271
21
-0.6564875
0
LINE
8
DEFAULT_255_2_778
10
3.5314271
20
-0.6564875
11
3.5314271
21
0.5341125
0
LINE
8
DEFAULT_255_2_778
10
3.5314271
20
0.5341125
11
3.7555271
21
0.5341125
0
LINE
8
DEFAULT_255_2_778
10
3.7555271
20
0.5341125
11
3.7555271
21
-0.1254875
0
LINE
8
DEFAULT_255_2_778
10
3.7555271
20
-0.1254875
11
3.7989271
21
-0.0696875
0
LINE
8
DEFAULT_255_2_778
10
3.7989271
20
-0.0696875
11
4.0137271
21
0.1822125
0
LINE
8
DEFAULT_255_2_778
10
4.0137271
20
0.1822125
11
4.2828271
21
0.1822125
0
LINE
8
DEFAULT_255_2_778
10
4.2828271
20
0.1822125
11
3.9793271
21
-0.1669875
0
LINE
8
DEFAULT_255_2_778
10
3.9793271
20
-0.1669875
11
4.3087271
21
-0.6562875
0
LINE
8
DEFAULT_255_2_778
10
4.3087271
20
-0.6562875
11
4.0513271
21
-0.6562875
0
LINE
8
DEFAULT_255_2_778
10
4.0513271
20
-0.6562875
11
4.0516271
21
-0.6562875
0
LINE
8
DEFAULT_255_2_778
10
4.5376365
20
0.1825646
11
4.6934365
21
-0.3825354
0
LINE
8
DEFAULT_255_2_778
10
4.6934365
20
-0.3825354
11
4.8493365
21
0.1825646
0
LINE
8
DEFAULT_255_2_778
10
4.8493365
20
0.1825646
11
5.0834365
21
0.1825646
0
LINE
8
DEFAULT_255_2_778
10
5.0834365
20
0.1825646
11
4.8006365
21
-0.6561354
0
LINE
8
DEFAULT_255_2_778
10
4.8006365
20
-0.6561354
11
4.5865365
21
-0.6561354
0
LINE
8
DEFAULT_255_2_778
10
4.5865365
20
-0.6561354
11
4.3037365
21
0.1825646
0
LINE
8
DEFAULT_255_2_778
10
4.3037365
20
0.1825646
11
4.5379365
21
0.1825646
0
LINE
8
DEFAULT_255_2_778
10
4.5379365
20
0.1825646
11
4.5376365
21
0.1825646
0
ARC
8
DEFAULT_255_2_778
10
5.8751417
20
-0.5494806
40
0.2439202
50
187.4304605
51
205.9260274
0
ARC
8
DEFAULT_255_2_778
10
5.4306574
20
-0.4005251
40
0.2713522
50
268.0807928
51
318.3033219
0
ARC
8
DEFAULT_255_2_778
10
5.410856
20
-0.3746656
40
0.2972525
50
229.3893599
51
272.0655466
0
ARC
8
DEFAULT_255_2_778
10
5.365913
20
-0.4252583
40
0.2295941
50
178.7937543
51
229.685571
0
ARC
8
DEFAULT_255_2_778
10
5.3727073
20
-0.4084228
40
0.236642
50
125.5650799
51
182.9072346
0
ARC
8
DEFAULT_255_2_778
10
5.4531608
20
-0.5391651
40
0.3899331
50
96.7030807
51
124.0076443
0
ARC
8
DEFAULT_255_2_778
10
5.5185782
20
-0.9193918
40
0.7754699
50
89.8380719
51
98.2244555
0
ARC
8
DEFAULT_255_2_778
10
5.485783
20
-0.0887613
40
0.1383672
50
357.0737426
51
38.5003445
0
ARC
8
DEFAULT_255_2_778
10
5.5100674
20
-0.0847799
40
0.1174982
50
44.3629301
51
94.9789108
0
ARC
8
DEFAULT_255_2_778
10
5.4920254
20
-0.1000738
40
0.1325811
50
86.6080137
51
127.5247223
0
ARC
8
DEFAULT_255_2_778
10
5.4706096
20
-0.0648982
40
0.0917467
50
130.2991886
51
182.7656458
0
ARC
8
DEFAULT_255_2_778
10
5.3800506
20
-0.0694854
40
0.2251809
50
143.1454237
51
179.9591969
0
ARC
8
DEFAULT_255_2_778
10
5.4381336
20
-0.113942
40
0.298322
50
111.8365403
51
143.004238
0
ARC
8
DEFAULT_255_2_778
10
5.5045768
20
-0.2657937
40
0.4640214
50
89.1365011
51
112.4777805
0
ARC
8
DEFAULT_255_2_778
10
5.5248178
20
-0.2043752
40
0.4027681
50
62.4033238
51
91.8849388
0
ARC
8
DEFAULT_255_2_778
10
5.5706224
20
-0.0985245
40
0.287865
50
49.501586
51
60.7229487
0
ARC
8
DEFAULT_255_2_778
10
5.5766522
20
-0.0833384
40
0.2724525
50
356.7625309
51
48.3917577
0
ARC
8
DEFAULT_255_2_778
10
6.3635646
20
-0.4706522
40
0.5149637
50
179.0623362
51
194.7043132
0
ARC
8
DEFAULT_255_2_778
10
6.0802396
20
-0.5401365
40
0.2233302
50
195.9122324
51
207.4034531
0
ARC
8
DEFAULT_255_2_778
10
5.4724584
20
-0.3069014
40
0.1934328
50
269.4405799
51
297.5982483
0
ARC
8
DEFAULT_255_2_778
10
5.4966679
20
-0.3479786
40
0.1458341
50
296.6454387
51
330.8000942
0
ARC
8
DEFAULT_255_2_778
10
5.5283522
20
-0.5291554
40
0.2545143
50
87.2936078
51
114.9612159
0
ARC
8
DEFAULT_255_2_778
10
5.4713755
20
-0.396425
40
0.1102237
50
117.2272325
51
177.3480067
0
ARC
8
DEFAULT_255_2_778
10
5.4506635
20
-0.4069547
40
0.0902264
50
178.4569123
51
227.6397145
0
ARC
8
DEFAULT_255_2_778
10
5.4640003
20
-0.3870013
40
0.1140131
50
229.443887
51
273.303252
0
LINE
8
DEFAULT_255_2_778
10
5.8822698
20
-0.656125
11
5.6557698
21
-0.656125
0
LINE
8
DEFAULT_255_2_778
10
5.5207698
20
-0.143925
11
5.6239698
21
-0.143925
0
LINE
8
DEFAULT_255_2_778
10
5.6239698
20
-0.143925
11
5.6239698
21
-0.095825
0
LINE
8
DEFAULT_255_2_778
10
5.3789698
20
-0.069325
11
5.1548698
21
-0.069325
0
LINE
8
DEFAULT_255_2_778
10
5.8486698
20
-0.098725
11
5.8486698
21
-0.462225
0
LINE
8
DEFAULT_255_2_778
10
5.8819698
20
-0.642925
11
5.8819698
21
-0.656125
0
LINE
8
DEFAULT_255_2_778
10
5.8819698
20
-0.656125
11
5.8822698
21
-0.656125
0
LINE
8
DEFAULT_255_2_778
10
5.6239698
20
-0.419125
11
5.6239698
21
-0.274925
0
LINE
8
DEFAULT_255_2_778
10
5.6239698
20
-0.274925
11
5.5403698
21
-0.274925
0
LINE
8
DEFAULT_255_2_778
10
5.3612698
20
-0.391325
11
5.3604698
21
-0.404525
0
LINE
8
DEFAULT_255_2_778
10
5.4705698
20
-0.500825
11
5.4705698
21
-0.500325
0
ARC
8
DEFAULT_255_2_778
10
6.4053805
20
-0.6412132
40
0.6200826
50
81.9356677
51
89.4189573
0
ARC
8
DEFAULT_255_2_778
10
6.3988009
20
-0.219148
40
0.1984032
50
86.2813457
51
126.4388165
0
ARC
8
DEFAULT_255_2_778
10
6.367738
20
-0.1625161
40
0.1346711
50
130.1204129
51
155.7305624
0
ARC
8
DEFAULT_255_2_778
10
6.4245824
20
-0.0093166
40
0.2074556
50
89.7828133
51
153.6579331
0
ARC
8
DEFAULT_255_2_778
10
6.427187
20
-0.0362107
40
0.2343552
50
73.1117022
51
90.4445264
0
LINE
8
DEFAULT_255_2_778
10
6.4955688
20
0.1880375
11
6.4923688
21
-0.0272625
0
LINE
8
DEFAULT_255_2_778
10
6.2449688
20
-0.1071625
11
6.2449688
21
-0.6559625
0
LINE
8
DEFAULT_255_2_778
10
6.2449688
20
-0.6559625
11
6.0208688
21
-0.6559625
0
LINE
8
DEFAULT_255_2_778
10
6.0208688
20
-0.6559625
11
6.0208688
21
0.1828375
0
LINE
8
DEFAULT_255_2_778
10
6.0208688
20
0.1828375
11
6.2325688
21
0.1828375
0
LINE
8
DEFAULT_255_2_778
10
6.2325688
20
0.1828375
11
6.2386688
21
0.0827375
0
LINE
8
DEFAULT_255_2_778
10
6.4952688
20
0.1880375
11
6.4955688
21
0.1880375
0
ARC
8
DEFAULT_255_2_778
10
7.0388571
20
-0.0819147
40
0.2798567
50
89.1679944
51
141.8360809
0
ARC
8
DEFAULT_255_2_778
10
7.0563519
20
-0.084679
40
0.2829105
50
55.883444
51
92.7211075
0
ARC
8
DEFAULT_255_2_778
10
7.0541473
20
-0.0522334
40
0.2580633
50
8.3480046
51
51.4333812
0
ARC
8
DEFAULT_255_2_778
10
6.7572668
20
-0.1216585
40
0.56246
50
0.2618928
51
10.9553388
0
ARC
8
DEFAULT_255_2_778
10
6.9383605
20
-0.1129292
40
0.1577374
50
355.5428481
51
36.2408053
0
ARC
8
DEFAULT_255_2_778
10
6.9963122
20
-0.0797586
40
0.0916952
50
40.936478
51
41.8447383
0
ARC
8
DEFAULT_255_2_778
10
6.9760895
20
-0.113924
40
0.1301032
50
47.1196146
51
94.4949661
0
ARC
8
DEFAULT_255_2_778
10
6.9614408
20
-0.2791781
40
0.2949906
50
89.1351976
51
90.0038749
0
ARC
8
DEFAULT_255_2_778
10
6.9508956
20
-0.1363205
40
0.1524966
50
86.0423385
51
150.0066626
0
LINE
8
DEFAULT_255_2_778
10
6.8188208
20
0.5344125
11
6.8188208
21
0.0910125
0
LINE
8
DEFAULT_255_2_778
10
7.3197208
20
-0.1190875
11
7.3197208
21
-0.6561875
0
LINE
8
DEFAULT_255_2_778
10
7.3197208
20
-0.6561875
11
7.0956208
21
-0.6561875
0
LINE
8
DEFAULT_255_2_778
10
7.0956208
20
-0.6561875
11
7.0956208
21
-0.1251875
0
LINE
8
DEFAULT_255_2_778
10
6.8188208
20
-0.0600875
11
6.8188208
21
-0.6561875
0
LINE
8
DEFAULT_255_2_778
10
6.8188208
20
-0.6561875
11
6.5947208
21
-0.6561875
0
LINE
8
DEFAULT_255_2_778
10
6.5947208
20
-0.6561875
11
6.5947208
21
0.5344125
0
LINE
8
DEFAULT_255_2_778
10
6.5947208
20
0.5344125
11
6.8188208
21
0.5344125
0
LINE
8
DEFAULT_255_2_778
10
6.8188208
20
0.5344125
11
6.8188208
21
0.5344125
0
ENDSEC
0
EOF