0
SECTION
2
HEADER
9
$MEASUREMENT
70
1
0
ENDSEC
0
SECTION
2
TABLES
0
TABLE
2
LTYPE
0
LTYPE
72
65
70
64
2
CONTINUOUS
3
______
73
0
40
0
0
ENDTAB
0
TABLE
2
LAYER
0
LAYER
2
DEFAULT_255_2_778
70
0
62
255
6
CONTINUOUS
0
ENDTAB
0
ENDSEC
0
SECTION
2
ENTITIES
0
ARC
8
DEFAULT_255_2_778
10
5.4341952
20
3.8401268
40
2.6560309
50
160.7095027
51
180.0775207
0
ARC
8
DEFAULT_255_2_778
10
5.4181206
20
3.8420241
40
2.6402344
50
102.0301591
51
160.6331218
0
ARC
8
DEFAULT_255_2_778
10
5.4222006
20
3.8066408
40
2.6756931
50
89.9621802
51
101.9576865
0
ARC
8
DEFAULT_255_2_778
10
5.4276411
20
3.8269235
40
2.6554123
50
70.3567975
51
90.0792807
0
ARC
8
DEFAULT_255_2_778
10
5.4294767
20
3.8422929
40
2.6403224
50
11.9023555
51
70.2821965
0
ARC
8
DEFAULT_255_2_778
10
5.3939547
20
3.8382699
40
2.6759126
50
359.9628159
51
11.829777
0
ARC
8
DEFAULT_255_2_778
10
5.4146283
20
3.8328623
40
2.655241
50
340.3554002
51
0.0792127
0
ARC
8
DEFAULT_255_2_778
10
5.4297203
20
3.8311583
40
2.6404568
50
281.9019784
51
340.2801285
0
ARC
8
DEFAULT_255_2_778
10
5.4257012
20
3.8666109
40
2.6759781
50
269.962864
51
281.8296308
0
ARC
8
DEFAULT_255_2_778
10
5.4202903
20
3.8457704
40
2.6551397
50
250.3550189
51
270.0793355
0
ARC
8
DEFAULT_255_2_778
10
5.4186162
20
3.8306794
40
2.6403665
50
191.9001656
51
250.2791382
0
ARC
8
DEFAULT_255_2_778
10
5.4543473
20
3.8347979
40
2.676181
50
179.9628467
51
191.8287004
0
LINE
8
DEFAULT_255_2_778
10
2.7781667
20
3.8365333
11
2.7781667
21
3.8365333
0
LINE
8
DEFAULT_255_2_778
10
5.424
20
10.4510749
11
5.424
21
6.4823749
0
LINE
8
DEFAULT_255_2_778
10
5.424
20
-2.7780251
11
5.424
21
1.1906749
0
ARC
8
DEFAULT_255_2_778
10
7.2702755
20
3.3464614
40
2.5717419
50
155.7904416
51
165.1008619
0
ARC
8
DEFAULT_255_2_778
10
6.8219762
20
3.5501322
40
2.0793503
50
146.8691054
51
155.8433994
0
ARC
8
DEFAULT_255_2_778
10
6.3194714
20
3.8817279
40
1.4773091
50
136.279612
51
146.9870267
0
ARC
8
DEFAULT_255_2_778
10
5.9146298
20
4.2735899
40
0.9138964
50
121.9125669
51
136.4930789
0
ARC
8
DEFAULT_255_2_778
10
5.7604978
20
4.5081038
40
0.6333873
50
115.5358377
51
121.2914623
0
ARC
8
DEFAULT_255_2_778
10
5.7037216
20
4.6313517
40
0.4977076
50
103.3634029
51
115.7544546
0
ARC
8
DEFAULT_255_2_778
10
5.6781384
20
4.7362358
40
0.3897511
50
90.1905729
51
103.2680002
0
ARC
8
DEFAULT_255_2_778
10
5.6773907
20
4.7818433
40
0.3441418
50
75.0285239
51
90.091344
0
ARC
8
DEFAULT_255_2_778
10
5.6549112
20
4.7351117
40
0.3952122
50
33.7697316
51
73.6302625
0
ARC
8
DEFAULT_255_2_778
10
5.3743185
20
4.5290801
40
0.7431444
50
18.3048078
51
34.9494527
0
ARC
8
DEFAULT_255_2_778
10
4.9045739
20
4.3674585
40
1.2398945
50
7.1405016
51
18.5778978
0
ARC
8
DEFAULT_255_2_778
10
4.382917
20
4.2953232
40
1.766485
50
359.8424766
51
7.3588665
0
ARC
8
DEFAULT_255_2_778
10
3.9620754
20
4.2937535
40
2.1873223
50
354.0157845
51
359.9139016
0
ARC
8
DEFAULT_255_2_778
10
3.6453001
20
4.3260427
40
2.5057377
50
348.3072706
51
354.036637
0
ARC
8
DEFAULT_255_2_778
10
3.4700102
20
4.3605914
40
2.6843924
50
344.9885896
51
348.3434078
0
ARC
8
DEFAULT_255_2_778
10
3.5770727
20
4.3266483
40
2.5721968
50
335.7880359
51
345.1011744
0
ARC
8
DEFAULT_255_2_778
10
4.0261511
20
4.1226003
40
2.0789398
50
326.8616076
51
335.8411099
0
ARC
8
DEFAULT_255_2_778
10
4.5291207
20
3.7906011
40
1.4762883
50
316.262041
51
326.9798023
0
ARC
8
DEFAULT_255_2_778
10
4.933886
20
3.3985698
40
0.9128127
50
301.8755976
51
316.4759124
0
ARC
8
DEFAULT_255_2_778
10
5.0877688
20
3.1641207
40
0.6324947
50
295.4886761
51
301.2532766
0
ARC
8
DEFAULT_255_2_778
10
5.1442602
20
3.0412434
40
0.4972703
50
283.3336311
51
295.7058766
0
ARC
8
DEFAULT_255_2_778
10
5.1696836
20
2.936772
40
0.3897526
50
270.1891396
51
283.2388383
0
ARC
8
DEFAULT_255_2_778
10
5.1704233
20
2.8913348
40
0.3443137
50
255.032279
51
270.0910153
0
ARC
8
DEFAULT_255_2_778
10
5.1929221
20
2.9378677
40
0.3951982
50
213.7629022
51
253.6233422
0
ARC
8
DEFAULT_255_2_778
10
5.4737343
20
3.144032
40
0.7433854
50
198.3035204
51
214.9445368
0
ARC
8
DEFAULT_255_2_778
10
5.943557
20
3.3056704
40
1.2402149
50
187.1407419
51
198.5766564
0
ARC
8
DEFAULT_255_2_778
10
6.4651004
20
3.3777909
40
1.766691
50
179.8425355
51
187.3589901
0
ARC
8
DEFAULT_255_2_778
10
6.8856783
20
3.3793594
40
2.1872647
50
174.0165596
51
179.9139013
0
ARC
8
DEFAULT_255_2_778
10
7.2020167
20
3.3471135
40
2.5052411
50
168.3077712
51
174.0372634
0
ARC
8
DEFAULT_255_2_778
10
7.3767185
20
3.3126912
40
2.6832943
50
164.9884104
51
168.343986
0
LINE
8
DEFAULT_255_2_778
10
4.7849957
20
4.0077032
11
4.7849957
21
4.0077032
0
LINE
8
DEFAULT_255_2_778
10
4.7294688
20
3.8365
11
6.1185688
21
3.8365
0
ENDSEC
0
EOF