0
SECTION
2
HEADER
9
$MEASUREMENT
70
1
0
ENDSEC
0
SECTION
2
TABLES
0
TABLE
2
LTYPE
0
LTYPE
72
65
70
64
2
CONTINUOUS
3
______
73
0
40
0
0
ENDTAB
0
TABLE
2
LAYER
0
LAYER
2
DEFAULT_255_2_778
70
0
62
255
6
CONTINUOUS
0
ENDTAB
0
ENDSEC
0
SECTION
2
ENTITIES
0
ARC
8
DEFAULT_255_2_778
10
5.4341952
20
-0.1286732
40
2.6560309
50
160.7095027
51
180.0775207
0
ARC
8
DEFAULT_255_2_778
10
5.4181206
20
-0.1267759
40
2.6402344
50
102.0301591
51
160.6331218
0
ARC
8
DEFAULT_255_2_778
10
5.4222006
20
-0.1621592
40
2.6756931
50
89.9621802
51
101.9576865
0
ARC
8
DEFAULT_255_2_778
10
5.4276411
20
-0.1418765
40
2.6554123
50
70.3567975
51
90.0792807
0
ARC
8
DEFAULT_255_2_778
10
5.4294767
20
-0.1265071
40
2.6403224
50
11.9023555
51
70.2821965
0
ARC
8
DEFAULT_255_2_778
10
5.3939547
20
-0.1305301
40
2.6759126
50
359.9628159
51
11.829777
0
ARC
8
DEFAULT_255_2_778
10
5.4146283
20
-0.1359377
40
2.655241
50
340.3554002
51
0.0792127
0
ARC
8
DEFAULT_255_2_778
10
5.4297203
20
-0.1376417
40
2.6404568
50
281.9019784
51
340.2801285
0
ARC
8
DEFAULT_255_2_778
10
5.4257012
20
-0.1021891
40
2.6759781
50
269.962864
51
281.8296308
0
ARC
8
DEFAULT_255_2_778
10
5.4202903
20
-0.1230296
40
2.6551397
50
250.3550189
51
270.0793355
0
ARC
8
DEFAULT_255_2_778
10
5.4186162
20
-0.1381206
40
2.6403665
50
191.9001656
51
250.2791382
0
ARC
8
DEFAULT_255_2_778
10
5.4543473
20
-0.1340021
40
2.676181
50
179.9628467
51
191.8287004
0
LINE
8
DEFAULT_255_2_778
10
2.7781667
20
-0.1322667
11
2.7781667
21
-0.1322667
0
LINE
8
DEFAULT_255_2_778
10
5.424
20
5.1594166
11
5.424
21
2.5136166
0
LINE
8
DEFAULT_255_2_778
10
6.4823667
20
0.4725333
11
6.0288667
21
0.9260333
0
LINE
8
DEFAULT_255_2_778
10
6.0288667
20
0.9260333
11
4.8191667
21
0.9260333
0
LINE
8
DEFAULT_255_2_778
10
4.8191667
20
0.9260333
11
4.3656667
21
0.4725333
0
LINE
8
DEFAULT_255_2_778
10
4.3656667
20
0.4725333
11
4.3656667
21
-0.7368667
0
LINE
8
DEFAULT_255_2_778
10
4.3656667
20
-0.7368667
11
4.8191667
21
-1.1906667
0
LINE
8
DEFAULT_255_2_778
10
4.8191667
20
-1.1906667
11
6.0285667
21
-1.1906667
0
LINE
8
DEFAULT_255_2_778
10
6.0285667
20
-1.1906667
11
6.4823667
21
-0.7371667
0
LINE
8
DEFAULT_255_2_778
10
6.4823667
20
-0.7371667
11
6.4823667
21
-0.1322667
0
LINE
8
DEFAULT_255_2_778
10
6.4823667
20
-0.1322667
11
5.4239667
21
-0.1322667
0
ENDSEC
0
EOF