0
SECTION
2
HEADER
9
$MEASUREMENT
70
1
0
ENDSEC
0
SECTION
2
TABLES
0
TABLE
2
LTYPE
0
LTYPE
72
65
70
64
2
CONTINUOUS
3
______
73
0
40
0
0
ENDTAB
0
TABLE
2
LAYER
0
LAYER
2
DEFAULT_255_2_778
70
0
62
255
6
CONTINUOUS
0
ENDTAB
0
ENDSEC
0
SECTION
2
ENTITIES
0
LINE
8
DEFAULT_255_2_778
10
8.0698
20
13.0968499
11
8.0698
21
8.3343499
0
LINE
8
DEFAULT_255_2_778
10
8.0698
20
-2.7781501
11
8.0698
21
1.9843499
0
LINE
8
DEFAULT_255_2_778
10
4.8948001
20
8.3343999
11
11.2448001
21
8.3343999
0
LINE
8
DEFAULT_255_2_778
10
11.2448001
20
8.3343999
11
11.2448001
21
1.9843999
0
LINE
8
DEFAULT_255_2_778
10
11.2448001
20
1.9843999
11
4.8948001
21
1.9843999
0
LINE
8
DEFAULT_255_2_778
10
4.8948001
20
1.9843999
11
4.8948001
21
8.3343999
0
LINE
8
DEFAULT_255_2_778
10
11.2448001
20
8.3343999
11
4.8948001
21
1.9843999
0
LINE
8
DEFAULT_255_2_778
10
8.5989584
20
3.3073
11
10.4510584
21
3.3073
0
LINE
8
DEFAULT_255_2_778
10
9.3265625
20
2.7781
11
9.7234625
21
2.7781
0
LINE
8
DEFAULT_255_2_778
10
8.5989625
20
2.7781
11
8.9958625
21
2.7781
0
LINE
8
DEFAULT_255_2_778
10
10.4510625
20
2.7781
11
10.0541625
21
2.7781
0
ARC
8
DEFAULT_255_2_778
10
7.7488666
20
5.7893971
40
2.4747744
50
144.0973995
51
146.357554
0
ARC
8
DEFAULT_255_2_778
10
7.2882933
20
6.1234162
40
1.9058312
50
141.3071286
51
144.1117115
0
ARC
8
DEFAULT_255_2_778
10
6.924226
20
6.415466
40
1.4391001
50
137.9309152
51
141.3211525
0
ARC
8
DEFAULT_255_2_778
10
6.6430361
20
6.6701108
40
1.0597436
50
133.4937011
51
137.9648561
0
ARC
8
DEFAULT_255_2_778
10
6.433168
20
6.8922921
40
0.7541156
50
127.5108597
51
133.5448302
0
ARC
8
DEFAULT_255_2_778
10
6.2928318
20
7.0761474
40
0.5228225
50
119.3014769
51
127.5800849
0
ARC
8
DEFAULT_255_2_778
10
6.2147883
20
7.2162118
40
0.3624838
50
107.8251671
51
119.3789137
0
ARC
8
DEFAULT_255_2_778
10
6.1856354
20
7.3077283
40
0.2664366
50
90.2846839
51
107.8812846
0
ARC
8
DEFAULT_255_2_778
10
6.1770686
20
7.2870988
40
0.2871542
50
51.9789644
51
88.5546634
0
ARC
8
DEFAULT_255_2_778
10
5.9824165
20
7.013558
40
0.6227257
50
41.5583298
51
53.3724416
0
ARC
8
DEFAULT_255_2_778
10
5.3976821
20
6.4913719
40
1.4066832
50
35.1478294
51
41.6739862
0
ARC
8
DEFAULT_255_2_778
10
2.3956833
20
4.3633633
40
5.0864085
50
33.3606742
51
35.2806685
0
ARC
8
DEFAULT_255_2_778
10
9.7125412
20
9.158349
40
3.6616645
50
213.0682765
51
216.6466418
0
ARC
8
DEFAULT_255_2_778
10
7.6187709
20
7.6050905
40
1.0546657
50
216.8366248
51
224.6824603
0
ARC
8
DEFAULT_255_2_778
10
7.2238968
20
7.2120629
40
0.4975395
50
224.4772448
51
238.762523
0
ARC
8
DEFAULT_255_2_778
10
7.1071474
20
7.0160953
40
0.2694436
50
238.3792413
51
269.2553115
0
ARC
8
DEFAULT_255_2_778
10
7.1021294
20
7.014912
40
0.2682419
50
270.3238442
51
288.7704036
0
ARC
8
DEFAULT_255_2_778
10
7.0696933
20
7.1124829
40
0.3710613
50
288.6646176
51
300.0690579
0
ARC
8
DEFAULT_255_2_778
10
6.9874534
20
7.2561535
40
0.5366035
50
299.982252
51
308.0465457
0
ARC
8
DEFAULT_255_2_778
10
6.8421026
20
7.4432764
40
0.7735452
50
307.9829301
51
313.9260405
0
ARC
8
DEFAULT_255_2_778
10
6.6243318
20
7.6706868
40
1.0884087
50
313.877879
51
318.3121592
0
ARC
8
DEFAULT_255_2_778
10
6.3241734
20
7.9389085
40
1.4909478
50
318.286199
51
321.7917728
0
ARC
8
DEFAULT_255_2_778
10
5.9324353
20
8.2482185
40
1.9900781
50
321.770251
51
324.5239823
0
ARC
8
DEFAULT_255_2_778
10
5.494979
20
8.561539
40
2.5281641
50
324.4951513
51
326.3447128
0
ENDSEC
0
EOF