0
SECTION
2
HEADER
9
$MEASUREMENT
70
1
0
ENDSEC
0
SECTION
2
TABLES
0
TABLE
2
LTYPE
0
LTYPE
72
65
70
64
2
CONTINUOUS
3
______
73
0
40
0
0
ENDTAB
0
TABLE
2
LAYER
0
LAYER
2
DEFAULT_255_2_778
70
0
62
255
6
CONTINUOUS
0
LAYER
2
DEFAULT_255_2_159
70
0
62
255
6
CONTINUOUS
0
LAYER
2
DEFAULT_255_2_778_5
70
0
62
255
6
CONTINUOUS
0
ENDTAB
0
ENDSEC
0
SECTION
2
ENTITIES
0
ARC
8
DEFAULT_255_2_778
10
6.3235525
20
5.4346089
40
4.7898491
50
180.0010944
51
180.1271837
0
ARC
8
DEFAULT_255_2_778
10
6.2860891
20
5.4343622
40
4.7523855
50
135.0022125
51
179.9981288
0
ARC
8
DEFAULT_255_2_778
10
6.2858295
20
5.4341027
40
4.7523856
50
90.0018712
51
134.9977875
0
ARC
8
DEFAULT_255_2_778
10
6.2855828
20
5.3966392
40
4.789849
50
89.8728163
51
89.9989056
0
ARC
8
DEFAULT_255_2_778
10
6.3068484
20
5.3958988
40
4.7905895
50
90.0010944
51
90.127174
0
ARC
8
DEFAULT_255_2_778
10
6.3066728
20
5.4342764
40
4.7522118
50
45.0013449
51
89.9989865
0
ARC
8
DEFAULT_255_2_778
10
6.3067641
20
5.4345375
40
4.7519627
50
359.9997807
51
44.9998975
0
ARC
8
DEFAULT_255_2_778
10
6.2672895
20
5.4346108
40
4.7914373
50
359.8728356
51
359.9989057
0
ARC
8
DEFAULT_255_2_778
10
6.2663661
20
5.4133414
40
4.7923609
50
0.0010942
51
0.1271499
0
ARC
8
DEFAULT_255_2_778
10
6.3071125
20
5.4132713
40
4.7516144
50
314.9983628
51
0.0019492
0
ARC
8
DEFAULT_255_2_778
10
6.3068481
20
5.4132539
40
4.751789
50
269.998923
51
315.0007651
0
ARC
8
DEFAULT_255_2_778
10
6.3068501
20
5.4535487
40
4.7920839
50
269.8728447
51
269.9989077
0
ARC
8
DEFAULT_255_2_778
10
6.2855809
20
5.4529022
40
4.7914375
50
270.0010943
51
270.1271644
0
ARC
8
DEFAULT_255_2_778
10
6.2856542
20
5.4134276
40
4.7519627
50
225.0001025
51
270.0002193
0
ARC
8
DEFAULT_255_2_778
10
6.2857406
20
5.4134465
40
4.7520372
50
180.0001413
51
224.9995272
0
ARC
8
DEFAULT_255_2_778
10
6.3242939
20
5.4133433
40
4.7905904
50
179.872826
51
179.9989056
0
LINE
8
DEFAULT_255_2_778
10
1.5337152
20
5.4239765
11
1.5337152
21
5.4239765
0
LINE
8
DEFAULT_255_2_778
10
8.6774152
20
1.0583765
11
9.0516152
21
-0.0643235
0
LINE
8
DEFAULT_255_2_778
10
9.0516152
20
-0.0643235
11
9.7998152
21
0.6839765
0
LINE
8
DEFAULT_255_2_778
10
9.7998152
20
0.6839765
11
8.6774152
21
1.0583765
0
LINE
8
DEFAULT_255_2_778
10
9.4712152
20
0.2645765
11
11.5879152
21
-1.8520235
0
LINE
8
DEFAULT_255_2_778
10
11.5879152
20
-1.8520235
11
16.4827152
21
-1.8520235
0
LINE
8
DEFAULT_255_2_159
10
12.4582741
20
0.2278815
11
12.7042396
21
0.2278815
0
LINE
8
DEFAULT_255_2_159
10
11.4224076
20
0.4949298
11
11.4224076
21
0.5385009
0
LINE
8
DEFAULT_255_2_159
10
12.7042396
20
0.7465175
11
12.4582741
21
0.7465175
0
LINE
8
DEFAULT_255_2_159
10
11.6824284
20
0.5286623
11
11.6824284
21
0.4794691
0
ARC
8
DEFAULT_255_2_159
10
12.106189
20
0.3072081
40
0.3745387
50
269.0328433
51
309.2223533
0
ARC
8
DEFAULT_255_2_159
10
12.1428975
20
0.2695785
40
0.3222086
50
308.396594
51
329.6985123
0
ARC
8
DEFAULT_255_2_159
10
12.1670189
20
0.2513308
40
0.2921976
50
330.4013509
51
355.3969671
0
ARC
8
DEFAULT_255_2_159
10
12.2469725
20
0.2543502
40
0.4580326
50
329.2356754
51
356.6871578
0
ARC
8
DEFAULT_255_2_159
10
12.1507714
20
0.3052253
40
0.5667458
50
324.8705087
51
329.7908741
0
ARC
8
DEFAULT_255_2_159
10
12.1370267
20
0.3170045
40
0.5847676
50
298.8768605
51
324.7015392
0
ARC
8
DEFAULT_255_2_159
10
12.0790181
20
0.4094317
40
0.6937438
50
296.9023634
51
299.3856109
0
ARC
8
DEFAULT_255_2_159
10
12.1016425
20
0.3592335
40
0.6387464
50
269.840749
51
297.1299682
0
ARC
8
DEFAULT_255_2_159
10
12.0923068
20
0.4708715
40
0.75042
50
253.3154597
51
270.577253
0
ARC
8
DEFAULT_255_2_159
10
12.0490924
20
0.3144917
40
0.5882273
50
221.1002745
51
252.9743532
0
ARC
8
DEFAULT_255_2_159
10
12.1295901
20
0.3835883
40
0.6943104
50
194.5395332
51
221.0302069
0
ARC
8
DEFAULT_255_2_159
10
12.4531211
20
0.4737718
40
1.0301384
50
182.0498758
51
194.8773428
0
ARC
8
DEFAULT_255_2_159
10
12.7629761
20
0.4944376
40
1.3405685
50
179.9789607
51
182.4588678
0
ARC
8
DEFAULT_255_2_159
10
12.4587624
20
0.5436933
40
1.0363678
50
168.6149228
51
180.2870643
0
ARC
8
DEFAULT_255_2_159
10
12.2484453
20
0.5849517
40
0.8220454
50
154.9162822
51
168.5403144
0
ARC
8
DEFAULT_255_2_159
10
12.087193
20
0.6646337
40
0.6422316
50
133.5747344
51
155.255784
0
ARC
8
DEFAULT_255_2_159
10
12.0587069
20
0.6889163
40
0.6050164
50
122.016829
51
133.2054458
0
ARC
8
DEFAULT_255_2_159
10
12.064965
20
0.6735149
40
0.6213997
50
97.8732183
51
121.7532052
0
ARC
8
DEFAULT_255_2_159
10
12.096302
20
0.4885094
40
0.8089738
50
89.8470441
51
98.2768672
0
ARC
8
DEFAULT_255_2_159
10
12.1048341
20
0.595243
40
0.7022663
50
73.3760121
51
90.5199254
0
ARC
8
DEFAULT_255_2_159
10
12.1391995
20
0.7216684
40
0.5713028
50
47.7085182
51
73.0510682
0
ARC
8
DEFAULT_255_2_159
10
12.1619246
20
0.7413716
40
0.5414476
50
3.7443406
51
48.0844109
0
ARC
8
DEFAULT_255_2_159
10
11.9886435
20
0.7137725
40
0.7163449
50
2.6199681
51
5.0421131
0
ARC
8
DEFAULT_255_2_159
10
12.069138
20
0.720802
40
0.3899849
50
3.7808098
51
23.935624
0
ARC
8
DEFAULT_255_2_159
10
12.1091506
20
0.7349036
40
0.3477081
50
24.4867598
51
46.9439858
0
ARC
8
DEFAULT_255_2_159
10
12.1092974
20
0.7389826
40
0.3446378
50
46.4988468
51
89.32978
0
ARC
8
DEFAULT_255_2_159
10
12.0985145
20
0.6351136
40
0.448728
50
88.1081091
51
90.0067575
0
ARC
8
DEFAULT_255_2_159
10
12.0936848
20
0.6443649
40
0.4395028
50
89.3772574
51
107.2072565
0
ARC
8
DEFAULT_255_2_159
10
12.0686829
20
0.7349072
40
0.3456289
50
107.6883802
51
143.3583058
0
ARC
8
DEFAULT_255_2_159
10
12.1679699
20
0.6603045
40
0.4698191
50
143.2845748
51
162.9353106
0
ARC
8
DEFAULT_255_2_159
10
12.4314723
20
0.5757362
40
0.7465455
50
162.6651531
51
174.0802654
0
ARC
8
DEFAULT_255_2_159
10
12.8064502
20
0.5321612
40
1.1240275
50
173.8422575
51
180.178354
0
ARC
8
DEFAULT_255_2_159
10
12.7105734
20
0.4741402
40
1.0281588
50
179.7030343
51
188.2276774
0
ARC
8
DEFAULT_255_2_159
10
12.3427627
20
0.4190497
40
0.6562528
50
188.0629138
51
201.1159741
0
ARC
8
DEFAULT_255_2_159
10
12.1506592
20
0.3457289
40
0.4506348
50
201.2188436
51
216.9761219
0
ARC
8
DEFAULT_255_2_159
10
12.071656
20
0.286536
40
0.3519169
50
217.0136782
51
265.2055646
0
ARC
8
DEFAULT_255_2_159
10
12.0989346
20
0.4479283
40
0.5152063
50
263.6825074
51
270.1037055
0
LINE
8
DEFAULT_255_2_159
10
12.9951818
20
1.26937
11
13.2411474
21
1.26937
0
LINE
8
DEFAULT_255_2_159
10
13.2411474
20
1.26937
11
13.248175
21
1.1007079
0
LINE
8
DEFAULT_255_2_159
10
15.127352
20
0.7676002
11
15.127352
21
-0.2514
0
LINE
8
DEFAULT_255_2_159
10
15.127352
20
-0.2514
11
14.8673312
21
-0.2514
0
LINE
8
DEFAULT_255_2_159
10
14.8673312
20
-0.2514
11
14.8673312
21
0.7521396
0
LINE
8
DEFAULT_255_2_159
10
14.1912772
20
0.7577616
11
14.1912772
21
-0.2514
0
LINE
8
DEFAULT_255_2_159
10
14.1912772
20
-0.2514
11
13.929851
21
-0.2514
0
LINE
8
DEFAULT_255_2_159
10
13.929851
20
-0.2514
11
13.929851
21
0.745112
0
LINE
8
DEFAULT_255_2_159
10
13.2552025
20
0.8589589
11
13.2552025
21
-0.2514
0
LINE
8
DEFAULT_255_2_159
10
13.2552025
20
-0.2514
11
12.9951818
21
-0.2514
0
LINE
8
DEFAULT_255_2_159
10
12.9951818
20
-0.2514
11
12.9951818
21
1.26937
0
ARC
8
DEFAULT_255_2_159
10
13.6675746
20
0.7477062
40
0.5481845
50
93.026108
51
139.9132385
0
ARC
8
DEFAULT_255_2_159
10
13.698691
20
0.5302553
40
0.7672252
50
89.9510814
51
94.4895047
0
ARC
8
DEFAULT_255_2_159
10
13.7060822
20
0.6550526
40
0.642463
50
75.8911392
51
90.6007495
0
ARC
8
DEFAULT_255_2_159
10
13.7700609
20
0.8910851
40
0.3979804
50
23.9940142
51
76.5407697
0
ARC
8
DEFAULT_255_2_159
10
14.6066882
20
0.7240942
40
0.5760996
50
118.5759595
51
145.1953667
0
ARC
8
DEFAULT_255_2_159
10
14.5842972
20
0.7669565
40
0.5277492
50
99.148069
51
118.6670129
0
ARC
8
DEFAULT_255_2_159
10
14.6158298
20
0.5908235
40
0.7066621
50
89.7790749
51
99.4017459
0
ARC
8
DEFAULT_255_2_159
10
14.6293821
20
0.6197086
40
0.6778583
50
73.2647022
51
90.915228
0
ARC
8
DEFAULT_255_2_159
10
14.7062368
20
0.8808602
40
0.4056403
50
10.7564668
51
73.0388175
0
ARC
8
DEFAULT_255_2_159
10
14.2878947
20
0.7630282
40
0.8394697
50
0.3120537
51
13.3293812
0
ARC
8
DEFAULT_255_2_159
10
14.2975766
20
0.7553914
40
0.5697638
50
359.6729949
51
8.7125723
0
ARC
8
DEFAULT_255_2_159
10
14.5071177
20
0.7887033
40
0.3575968
50
8.5224177
51
22.6803471
0
ARC
8
DEFAULT_255_2_159
10
14.6134794
20
0.8329268
40
0.242408
50
22.7295744
51
42.2764912
0
ARC
8
DEFAULT_255_2_159
10
14.6350493
20
0.8465252
40
0.2173461
50
43.4493352
51
69.2720358
0
ARC
8
DEFAULT_255_2_159
10
14.5812676
20
0.7121887
40
0.3620325
50
68.8360843
51
81.978945
0
ARC
8
DEFAULT_255_2_159
10
14.5461765
20
0.4772247
40
0.5995976
50
81.7915014
51
90.3002265
0
LINE
8
DEFAULT_255_2_159
10
14.5430347
20
1.076814
11
14.5426566
21
1.0768141
0
ARC
8
DEFAULT_255_2_159
10
14.5390492
20
0.6785024
40
0.398328
50
89.4810924
51
106.5054096
0
ARC
8
DEFAULT_255_2_159
10
14.5191247
20
0.7518939
40
0.3223048
50
106.8160678
51
132.2751107
0
ARC
8
DEFAULT_255_2_159
10
14.5266729
20
0.7438278
40
0.3333508
50
132.3024442
51
166.993134
0
ARC
8
DEFAULT_255_2_159
10
14.6399262
20
0.7114012
40
0.4510378
50
166.2175995
51
174.1003741
0
ARC
8
DEFAULT_255_2_159
10
13.4398969
20
0.7517742
40
0.4899993
50
359.2209559
51
14.4877921
0
ARC
8
DEFAULT_255_2_159
10
13.669825
20
0.817905
40
0.250923
50
13.0020656
51
76.7082605
0
ARC
8
DEFAULT_255_2_159
10
13.6112122
20
0.610867
40
0.4659863
50
75.5471551
51
90.7421606
0
ARC
8
DEFAULT_255_2_159
10
13.5993332
20
0.6162691
40
0.4605821
50
89.2730903
51
106.8380901
0
ARC
8
DEFAULT_255_2_159
10
13.5647069
20
0.7419552
40
0.3302707
50
107.4046035
51
156.6219056
0
ARC
8
DEFAULT_255_2_159
10
13.6836229
20
0.6738391
40
0.466705
50
154.7384931
51
156.6309028
0
LINE
8
DEFAULT_255_2_778_5
10
0.3431752
20
5.5563
11
12.2493752
21
5.5563
0
LINE
8
DEFAULT_255_2_778_5
10
6.2963
20
11.3771248
11
6.2963
21
-0.5290752
0
ENDSEC
0
EOF