0
SECTION
2
HEADER
9
$MEASUREMENT
70
1
0
ENDSEC
0
SECTION
2
TABLES
0
TABLE
2
LTYPE
0
LTYPE
72
65
70
64
2
CONTINUOUS
3
______
73
0
40
0
0
ENDTAB
0
TABLE
2
LAYER
0
LAYER
2
DEFAULT_255_2_778
70
0
62
255
6
CONTINUOUS
0
ENDTAB
0
ENDSEC
0
SECTION
2
ENTITIES
0
ARC
8
DEFAULT_255_2_778
10
7.6729463
20
8.3365798
40
0.2646442
50
90.0095622
51
179.9904072
0
ARC
8
DEFAULT_255_2_778
10
9.2314394
20
8.3155693
40
0.2871194
50
14.7235257
51
84.2105249
0
ARC
8
DEFAULT_255_2_778
10
9.1989387
20
8.2867553
40
0.3264654
50
7.9947098
51
18.1667989
0
ARC
8
DEFAULT_255_2_778
10
9.2371931
20
8.2923184
40
0.2878092
50
0.0807729
51
7.9571815
0
ARC
8
DEFAULT_255_2_778
10
9.261304
20
5.4258581
40
0.2641981
50
314.902502
51
0.0143316
0
ARC
8
DEFAULT_255_2_778
10
9.261207
20
5.4252826
40
0.2638594
50
269.9888223
51
315.0056363
0
ARC
8
DEFAULT_255_2_778
10
9.2609673
20
5.3388946
40
0.1774716
50
269.8175412
51
270.0607703
0
ARC
8
DEFAULT_255_2_778
10
7.6728611
20
5.425983
40
0.2645588
50
180.0127443
51
270.0088721
0
LINE
8
DEFAULT_255_2_778
10
7.6729021
20
8.6012241
11
9.2604021
21
8.6012241
0
LINE
8
DEFAULT_255_2_778
10
9.5250021
20
8.2927241
11
9.5250021
21
7.0134241
0
LINE
8
DEFAULT_255_2_778
10
9.5250021
20
7.0134241
11
9.5255021
21
5.4259241
0
LINE
8
DEFAULT_255_2_778
10
9.2604021
20
5.1614241
11
7.6729021
21
5.1614241
0
LINE
8
DEFAULT_255_2_778
10
7.4083021
20
5.4259241
11
7.4083021
21
8.3366241
0
LINE
8
DEFAULT_255_2_778
10
7.4083021
20
8.3366241
11
7.4083021
21
8.3366241
0
ARC
8
DEFAULT_255_2_778
10
8.4667257
20
1.1926668
40
0.793741
50
0.0017899
51
87.0543314
0
ARC
8
DEFAULT_255_2_778
10
8.4667017
20
1.1792983
40
0.8070933
50
87.1014029
51
90.0024874
0
ARC
8
DEFAULT_255_2_778
10
8.4666088
20
1.1927321
40
0.7936595
50
89.9958221
51
177.0412506
0
ARC
8
DEFAULT_255_2_778
10
8.4800219
20
1.192728
40
0.8070551
50
177.0901152
51
180.0025865
0
ARC
8
DEFAULT_255_2_778
10
8.4667207
20
1.1926239
40
0.793754
50
179.9951153
51
267.0462358
0
ARC
8
DEFAULT_255_2_778
10
8.4666277
20
1.2056589
40
0.8067673
50
267.1005346
51
270.0027716
0
ARC
8
DEFAULT_255_2_778
10
8.4666518
20
1.1927272
40
0.7938356
50
270.0010774
51
357.0478464
0
ARC
8
DEFAULT_255_2_778
10
8.4536857
20
1.1926526
40
0.8067809
50
357.1005606
51
0.002769
0
LINE
8
DEFAULT_255_2_778
10
7.4083667
20
6.2197916
11
9.5250667
21
6.2197916
0
LINE
8
DEFAULT_255_2_778
10
9.5250667
20
7.0134916
11
7.4083667
21
7.0134916
0
ARC
8
DEFAULT_255_2_778
10
7.1452995
20
14.6847907
40
0.2661672
50
88.7297244
51
178.7079264
0
ARC
8
DEFAULT_255_2_778
10
7.1332807
20
-0.398498
40
0.2540809
50
180.0923513
51
226.5674575
0
ARC
8
DEFAULT_255_2_778
10
7.1502291
20
-0.3812527
40
0.2782565
50
226.4744844
51
270.1999337
0
ARC
8
DEFAULT_255_2_778
10
9.7831341
20
-0.3768947
40
0.2786144
50
269.8079253
51
313.4661658
0
ARC
8
DEFAULT_255_2_778
10
9.8000636
20
-0.3945741
40
0.2541366
50
313.4379769
51
359.924829
0
ARC
8
DEFAULT_255_2_778
10
9.787911
20
14.6885925
40
0.2663613
50
1.3337655
51
91.2285432
0
LINE
8
DEFAULT_255_2_778
10
6.8792
20
14.6907925
11
6.8792
21
-0.3989075
0
LINE
8
DEFAULT_255_2_778
10
7.1512
20
-0.6595075
11
9.7822
21
-0.6555075
0
LINE
8
DEFAULT_255_2_778
10
10.0542
20
-0.3949075
11
10.0542
21
14.6947925
0
LINE
8
DEFAULT_255_2_778
10
9.7822
20
14.9548925
11
7.1512
21
14.9508925
0
LINE
8
DEFAULT_255_2_778
10
6.8792
20
3.3093561
11
10.0542
21
3.3093561
0
LINE
8
DEFAULT_255_2_778
10
6.8792
20
10.9822561
11
10.0542
21
10.9822561
0
LINE
8
DEFAULT_255_2_778
10
8.136
20
1.5895561
11
8.7974
21
0.8619561
0
ARC
8
DEFAULT_255_2_778
10
8.4666395
20
13.0988731
40
0.7938106
50
0.0065866
51
87.0495641
0
ARC
8
DEFAULT_255_2_778
10
8.466689
20
13.0858834
40
0.8067809
50
87.1005606
51
90.002769
0
ARC
8
DEFAULT_255_2_778
10
8.466724
20
13.0988671
40
0.7937973
50
90.0053386
51
177.0439047
0
ARC
8
DEFAULT_255_2_778
10
8.4793692
20
13.0990034
40
0.806419
50
177.0999034
51
180.0027688
0
ARC
8
DEFAULT_255_2_778
10
8.4667723
20
13.098962
40
0.7938223
50
179.9998296
51
267.0421868
0
ARC
8
DEFAULT_255_2_778
10
8.4666111
20
13.1115835
40
0.806419
50
267.0999034
51
270.0027688
0
ARC
8
DEFAULT_255_2_778
10
8.4666351
20
13.099
40
0.7938356
50
270.0010774
51
357.0478464
0
ARC
8
DEFAULT_255_2_778
10
8.4536691
20
13.0989254
40
0.8067809
50
357.1005606
51
0.002769
0
LINE
8
DEFAULT_255_2_778
10
8.79745
20
1.5895644
11
8.06985
21
0.8619644
0
LINE
8
DEFAULT_255_2_778
10
8.13595
20
13.4957644
11
8.79745
21
12.7681644
0
LINE
8
DEFAULT_255_2_778
10
8.7973979
20
13.4957021
11
8.0697979
21
12.7681021
0
ENDSEC
0
EOF