0
SECTION
2
HEADER
9
$MEASUREMENT
70
1
0
ENDSEC
0
SECTION
2
TABLES
0
TABLE
2
LTYPE
0
LTYPE
72
65
70
64
2
CONTINUOUS
3
______
73
0
40
0
0
ENDTAB
0
TABLE
2
LAYER
0
LAYER
2
DEFAULT_255_2_778
70
0
62
255
6
CONTINUOUS
0
LAYER
2
DEFAULT_255_1_234
70
0
62
255
6
CONTINUOUS
0
ENDTAB
0
ENDSEC
0
SECTION
2
ENTITIES
0
LINE
8
DEFAULT_255_2_778
10
6.746867
20
2.5135333
11
27.913567
21
2.5135333
0
LINE
8
DEFAULT_255_2_778
10
27.913567
20
2.5135333
11
27.913567
21
-2.7781667
0
LINE
8
DEFAULT_255_2_778
10
27.913567
20
-2.7781667
11
6.746867
21
-2.7781667
0
LINE
8
DEFAULT_255_2_778
10
6.746867
20
-2.7781667
11
6.746867
21
2.5135333
0
LINE
8
DEFAULT_255_2_778
10
19.9760417
20
2.5135333
11
21.2989417
21
2.5135333
0
LINE
8
DEFAULT_255_2_778
10
21.2989417
20
2.5135333
11
21.2989417
21
-2.7781667
0
LINE
8
DEFAULT_255_2_778
10
21.2989417
20
-2.7781667
11
19.9760417
21
-2.7781667
0
LINE
8
DEFAULT_255_2_778
10
19.9760417
20
-2.7781667
11
19.9760417
21
2.5135333
0
LINE
8
DEFAULT_255_2_778
10
21.2989335
20
0.3968667
11
31.8822335
21
0.3968667
0
LINE
8
DEFAULT_255_2_778
10
31.8822335
20
0.3968667
11
31.8822335
21
-0.6614333
0
LINE
8
DEFAULT_255_2_778
10
31.8822335
20
-0.6614333
11
21.2989335
21
-0.6614333
0
LINE
8
DEFAULT_255_2_778
10
21.2989335
20
-0.6614333
11
21.2989335
21
0.3968667
0
LINE
8
DEFAULT_255_2_778
10
10.7156
20
7.8051333
11
10.7156
21
2.5134333
0
LINE
8
DEFAULT_255_2_778
10
16.0073
20
7.8051333
11
16.0073
21
2.5134333
0
LINE
8
DEFAULT_255_2_778
10
18.6531
20
7.8051333
11
18.6531
21
2.5134333
0
LINE
8
DEFAULT_255_2_778
10
23.9448
20
7.8051333
11
23.9448
21
2.5134333
0
LINE
8
DEFAULT_255_2_778
10
2.7781335
20
0.3968667
11
13.3614335
21
0.3968667
0
LINE
8
DEFAULT_255_2_778
10
13.3614335
20
0.3968667
11
13.3614335
21
-0.6614333
0
LINE
8
DEFAULT_255_2_778
10
13.3614335
20
-0.6614333
11
2.7781335
21
-0.6614333
0
LINE
8
DEFAULT_255_2_778
10
2.7781335
20
-0.6614333
11
2.7781335
21
0.3968667
0
LINE
8
DEFAULT_255_2_778
10
13.3614417
20
2.5135333
11
14.6843417
21
2.5135333
0
LINE
8
DEFAULT_255_2_778
10
14.6843417
20
2.5135333
11
14.6843417
21
-2.7781667
0
LINE
8
DEFAULT_255_2_778
10
14.6843417
20
-2.7781667
11
13.3614417
21
-2.7781667
0
LINE
8
DEFAULT_255_2_778
10
13.3614417
20
-2.7781667
11
13.3614417
21
2.5135333
0
LINE
8
DEFAULT_255_2_778
10
17.3302
20
2.5135333
11
17.3302
21
-2.7781667
0
LINE
8
DEFAULT_255_1_234
10
8.6143137
20
6.6911433
11
8.6143137
21
5.5161
0
LINE
8
DEFAULT_255_1_234
10
8.6143137
20
5.5161
11
8.4649234
21
5.5161
0
LINE
8
DEFAULT_255_1_234
10
8.4649234
20
5.5161
11
8.4649234
21
6.5064133
0
LINE
8
DEFAULT_255_1_234
10
8.4649234
20
6.5064133
11
8.1653396
21
6.3963785
0
LINE
8
DEFAULT_255_1_234
10
8.1653396
20
6.3963785
11
8.1653396
21
6.5313117
0
LINE
8
DEFAULT_255_1_234
10
8.1653396
20
6.5313117
11
8.5910217
21
6.6911433
0
LINE
8
DEFAULT_255_1_234
10
8.5910217
20
6.6911433
11
8.6143137
21
6.6911433
0
LINE
8
DEFAULT_255_1_234
10
9.8158618
20
5.6373792
11
9.8158618
21
5.5161
0
LINE
8
DEFAULT_255_1_234
10
9.8158618
20
5.5161
11
9.0496339
21
5.5161
0
LINE
8
DEFAULT_255_1_234
10
9.0496339
20
5.5161
11
9.0496339
21
5.6229221
0
LINE
8
DEFAULT_255_1_234
10
9.0496339
20
5.6229221
11
9.4544335
21
6.0726995
0
LINE
8
DEFAULT_255_1_234
10
9.1757322
20
6.3409595
11
9.0271451
21
6.3409595
0
LINE
8
DEFAULT_255_1_234
10
9.5419795
20
5.9771218
11
9.2287417
21
5.6373792
0
LINE
8
DEFAULT_255_1_234
10
9.2287417
20
5.6373792
11
9.8158618
21
5.6373792
0
ARC
8
DEFAULT_255_1_234
10
8.1054169
20
7.2656527
40
1.8008286
50
318.5132453
51
320.7828378
0
ARC
8
DEFAULT_255_1_234
10
8.6341143
20
6.8353426
40
1.1191493
50
320.7372736
51
323.9737074
0
ARC
8
DEFAULT_255_1_234
10
9.0261
20
6.5513361
40
0.6350923
50
323.8961724
51
328.6421089
0
ARC
8
DEFAULT_255_1_234
10
9.2307595
20
6.4251031
40
0.3946393
50
328.8299013
51
331.789948
0
ARC
8
DEFAULT_255_1_234
10
9.3304774
20
6.3736509
40
0.2824501
50
331.4255242
51
352.9364833
0
ARC
8
DEFAULT_255_1_234
10
9.3441274
20
6.3705976
40
0.2685315
50
353.2248685
51
0.0169286
0
ARC
8
DEFAULT_255_1_234
10
9.3651151
20
6.372895
40
0.2475536
50
359.4866256
51
15.9339782
0
ARC
8
DEFAULT_255_1_234
10
9.4158136
20
6.3865286
40
0.1950618
50
16.1714718
51
43.5284424
0
ARC
8
DEFAULT_255_1_234
10
9.4235445
20
6.3942573
40
0.184134
50
43.4415429
51
83.1661404
0
ARC
8
DEFAULT_255_1_234
10
9.4101363
20
6.3205771
40
0.258926
50
82.160215
51
90.1505798
0
ARC
8
DEFAULT_255_1_234
10
9.406979
20
6.2668865
40
0.3126255
50
89.5460705
51
102.5418777
0
ARC
8
DEFAULT_255_1_234
10
9.3826876
20
6.3699665
40
0.2067346
50
102.1739365
51
129.2061916
0
ARC
8
DEFAULT_255_1_234
10
9.3747948
20
6.3824094
40
0.1921118
50
129.7279328
51
135.7542026
0
ARC
8
DEFAULT_255_1_234
10
9.3869476
20
6.3727045
40
0.2075944
50
136.175737
51
166.3674722
0
ARC
8
DEFAULT_255_1_234
10
9.4876395
20
6.3457182
40
0.3118201
50
165.9092917
51
178.8683903
0
ARC
8
DEFAULT_255_1_234
10
9.5741256
20
6.3410179
40
0.3983935
50
178.438168
51
180.0083905
0
ARC
8
DEFAULT_255_1_234
10
9.4339859
20
6.3449231
40
0.4068601
50
163.2878735
51
180.5581814
0
ARC
8
DEFAULT_255_1_234
10
9.353812
20
6.366984
40
0.3237344
50
133.454115
51
162.9470031
0
ARC
8
DEFAULT_255_1_234
10
9.3716661
20
6.348
40
0.349795
50
100.7869394
51
133.4384016
0
ARC
8
DEFAULT_255_1_234
10
9.4064433
20
6.1931319
40
0.5084616
50
89.6605301
51
101.3704185
0
ARC
8
DEFAULT_255_1_234
10
9.4130772
20
6.1992496
40
0.502348
50
78.2171172
51
90.4130393
0
ARC
8
DEFAULT_255_1_234
10
9.448585
20
6.3616637
40
0.3361092
50
55.9268222
51
78.4888551
0
ARC
8
DEFAULT_255_1_234
10
9.468229
20
6.3955324
40
0.2970617
50
47.9292255
51
55.4054003
0
ARC
8
DEFAULT_255_1_234
10
9.4783851
20
6.4058502
40
0.2825983
50
4.3347696
51
48.0560701
0
ARC
8
DEFAULT_255_1_234
10
9.3688244
20
6.3888601
40
0.393225
50
359.925209
51
5.5967654
0
ARC
8
DEFAULT_255_1_234
10
9.4117136
20
6.3944816
40
0.3503892
50
337.8914096
51
358.9967724
0
ARC
8
DEFAULT_255_1_234
10
9.1403548
20
6.4991706
40
0.6412172
50
326.9135351
51
338.3505194
0
ARC
8
DEFAULT_255_1_234
10
8.7417852
20
6.7546284
40
1.1146189
50
319.6472867
51
327.095818
0
ARC
8
DEFAULT_255_1_234
10
8.3584855
20
7.0708
40
1.6114559
50
317.2586784
51
319.9046139
0
LINE
8
DEFAULT_255_1_234
10
10.1893376
20
6.0518169
11
10.1893376
21
6.1730962
0
LINE
8
DEFAULT_255_1_234
10
10.1893376
20
6.1730962
11
10.3009788
21
6.1730962
0
LINE
8
DEFAULT_255_1_234
10
10.1106266
20
6.3787087
11
9.9620394
21
6.3787087
0
LINE
8
DEFAULT_255_1_234
10
9.9515981
20
5.8245188
11
10.1009885
21
5.8245188
0
LINE
8
DEFAULT_255_1_234
10
10.3009788
20
6.0518169
11
10.1893376
21
6.0518169
0
ARC
8
DEFAULT_255_1_234
10
10.2980654
20
6.5123713
40
0.3392876
50
270.4919872
51
281.8951556
0
ARC
8
DEFAULT_255_1_234
10
10.3221916
20
6.4021702
40
0.2264817
50
281.6691735
51
301.2943132
0
ARC
8
DEFAULT_255_1_234
10
10.3392126
20
6.3710304
40
0.1910381
50
301.7833094
51
311.7545298
0
ARC
8
DEFAULT_255_1_234
10
10.3483702
20
6.3608748
40
0.1773635
50
311.7323931
51
354.2802411
0
ARC
8
DEFAULT_255_1_234
10
10.2757327
20
6.3733722
40
0.2509385
50
353.0937916
51
0.1181479
0
ARC
8
DEFAULT_255_1_234
10
10.2296112
20
6.3781386
40
0.2970898
50
359.1805295
51
15.0453146
0
ARC
8
DEFAULT_255_1_234
10
10.3641949
20
6.4173992
40
0.1569564
50
13.9577229
51
77.6713066
0
ARC
8
DEFAULT_255_1_234
10
10.3255478
20
6.2788949
40
0.3006298
50
76.1116566
51
90.7026153
0
ARC
8
DEFAULT_255_1_234
10
10.3196316
20
6.3062545
40
0.2732568
50
89.5324876
51
103.531937
0
ARC
8
DEFAULT_255_1_234
10
10.299576
20
6.3861884
40
0.1908508
50
103.2931773
51
133.5619022
0
ARC
8
DEFAULT_255_1_234
10
10.2951249
20
6.3921375
40
0.1834746
50
133.8349307
51
173.5344437
0
ARC
8
DEFAULT_255_1_234
10
10.3674292
20
6.3793213
40
0.2568033
50
172.5096846
51
180.1366907
0
ARC
8
DEFAULT_255_1_234
10
10.2723186
20
6.3827622
40
0.3103056
50
155.3484492
51
180.7484736
0
ARC
8
DEFAULT_255_1_234
10
10.2674275
20
6.3798846
40
0.3070957
50
131.5744599
51
154.4798489
0
ARC
8
DEFAULT_255_1_234
10
10.2987422
20
6.348231
40
0.3515643
50
96.9875458
51
131.9690667
0
ARC
8
DEFAULT_255_1_234
10
10.3206902
20
6.2236636
40
0.4779224
50
89.8596053
51
97.7825159
0
ARC
8
DEFAULT_255_1_234
10
10.3254965
20
6.1974616
40
0.5041361
50
78.3655447
51
90.4131539
0
ARC
8
DEFAULT_255_1_234
10
10.3612883
20
6.3633887
40
0.3344039
50
56.6229102
51
78.638727
0
ARC
8
DEFAULT_255_1_234
10
10.3827827
20
6.4009805
40
0.2912001
50
47.0253525
51
56.0854072
0
ARC
8
DEFAULT_255_1_234
10
10.3847607
20
6.4049223
40
0.2869704
50
10.9208013
51
46.7778124
0
ARC
8
DEFAULT_255_1_234
10
10.2483673
20
6.3733857
40
0.426899
50
359.6364486
51
11.6087304
0
ARC
8
DEFAULT_255_1_234
10
10.4318517
20
6.3718752
40
0.243409
50
332.3549906
51
359.7179418
0
ARC
8
DEFAULT_255_1_234
10
10.3668119
20
6.4027142
40
0.3153459
50
325.2333722
51
332.8745602
0
ARC
8
DEFAULT_255_1_234
10
10.3820743
20
6.3920828
40
0.2967456
50
292.9802137
51
325.2392345
0
ARC
8
DEFAULT_255_1_234
10
10.3546116
20
6.4454863
40
0.3566604
50
292.5402179
51
293.6924929
0
ARC
8
DEFAULT_255_1_234
10
10.3938712
20
5.8000091
40
0.3307468
50
57.6435486
51
72.8625112
0
ARC
8
DEFAULT_255_1_234
10
10.4293212
20
5.8574549
40
0.2632492
50
36.7248896
51
57.4697979
0
ARC
8
DEFAULT_255_1_234
10
10.4281845
20
5.858722
40
0.2634081
50
8.0545065
51
36.356114
0
ARC
8
DEFAULT_255_1_234
10
10.341903
20
5.8432174
40
0.3510261
50
359.8320645
51
8.5869982
0
ARC
8
DEFAULT_255_1_234
10
10.3043806
20
5.8384101
40
0.3885653
50
343.9829931
51
0.5571613
0
ARC
8
DEFAULT_255_1_234
10
10.3930003
20
5.8141438
40
0.2966924
50
311.6359546
51
343.7651759
0
ARC
8
DEFAULT_255_1_234
10
10.3551573
20
5.8568102
40
0.3537231
50
279.7829875
51
311.6255694
0
ARC
8
DEFAULT_255_1_234
10
10.3250349
20
6.000528
40
0.5004971
50
269.7286406
51
280.3856417
0
ARC
8
DEFAULT_255_1_234
10
10.3188421
20
5.9963996
40
0.4963778
50
256.6828919
51
270.4412052
0
ARC
8
DEFAULT_255_1_234
10
10.2849717
20
5.8579394
40
0.3538406
50
229.4223008
51
256.8556159
0
ARC
8
DEFAULT_255_1_234
10
10.243511
20
5.8112736
40
0.2914296
50
181.818294
51
229.6455059
0
ARC
8
DEFAULT_255_1_234
10
10.3475066
20
5.8243496
40
0.3959084
50
179.9755256
51
183.2323064
0
ARC
8
DEFAULT_255_1_234
10
10.3302812
20
5.8223037
40
0.2293034
50
179.4465117
51
196.2869258
0
ARC
8
DEFAULT_255_1_234
10
10.281522
20
5.8089651
40
0.1787621
50
196.5661473
51
227.705904
0
ARC
8
DEFAULT_255_1_234
10
10.2979315
20
5.8273155
40
0.2033784
50
227.7652068
51
257.8762805
0
ARC
8
DEFAULT_255_1_234
10
10.3204285
20
5.9216156
40
0.3003081
50
257.4584385
51
270.426602
0
ARC
8
DEFAULT_255_1_234
10
10.3249851
20
5.9505996
40
0.329292
50
269.5962073
51
280.8789248
0
ARC
8
DEFAULT_255_1_234
10
10.347938
20
5.8359685
40
0.2123908
50
280.6346389
51
299.8595945
0
ARC
8
DEFAULT_255_1_234
10
10.3670287
20
5.7997212
40
0.171457
50
300.3576302
51
314.5517981
0
ARC
8
DEFAULT_255_1_234
10
10.3587347
20
5.8057919
40
0.1816095
50
315.0728369
51
345.0431014
0
ARC
8
DEFAULT_255_1_234
10
10.2664161
20
5.8326841
40
0.2777492
50
344.5986631
51
357.9269593
0
ARC
8
DEFAULT_255_1_234
10
10.1768488
20
5.8388276
40
0.3674917
50
357.4748886
51
0.0231117
0
ARC
8
DEFAULT_255_1_234
10
10.2791597
20
5.8412679
40
0.2651907
50
359.5047933
51
13.4239635
0
ARC
8
DEFAULT_255_1_234
10
10.365824
20
5.8634478
40
0.1757509
50
12.9498199
51
48.7551375
0
ARC
8
DEFAULT_255_1_234
10
10.3475974
20
5.83854
40
0.2065134
50
49.5088623
51
72.1836453
0
ARC
8
DEFAULT_255_1_234
10
10.3118127
20
5.7323291
40
0.3185836
50
71.9010081
51
84.3554254
0
ARC
8
DEFAULT_255_1_234
10
10.2956759
20
5.5962326
40
0.4556151
50
84.0193428
51
89.333121
0
LINE
8
DEFAULT_255_1_234
10
11.5242125
20
6.6855211
11
11.5242125
21
5.908852
0
LINE
8
DEFAULT_255_1_234
10
11.5242125
20
5.908852
11
11.6864536
21
5.908852
0
LINE
8
DEFAULT_255_1_234
10
11.6864536
20
5.908852
11
11.6864536
21
5.7875728
0
LINE
8
DEFAULT_255_1_234
10
11.6864536
20
5.7875728
11
11.5242125
21
5.7875728
0
LINE
8
DEFAULT_255_1_234
10
11.5242125
20
5.7875728
11
11.5242125
21
5.5161
0
LINE
8
DEFAULT_255_1_234
10
11.5242125
20
5.5161
11
11.3748222
21
5.5161
0
LINE
8
DEFAULT_255_1_234
10
11.3748222
20
5.5161
11
11.3748222
21
5.7875728
0
LINE
8
DEFAULT_255_1_234
10
11.3748222
20
5.7875728
11
10.8423179
21
5.7875728
0
LINE
8
DEFAULT_255_1_234
10
10.8423179
20
5.7875728
11
10.8423179
21
5.8751187
0
LINE
8
DEFAULT_255_1_234
10
10.8423179
20
5.8751187
11
11.3659873
21
6.6855211
0
LINE
8
DEFAULT_255_1_234
10
11.3659873
20
6.6855211
11
11.5242125
21
6.6855211
0
LINE
8
DEFAULT_255_1_234
10
11.3571523
20
6.4501912
11
11.0109844
21
5.908852
0
LINE
8
DEFAULT_255_1_234
10
11.0109844
20
5.908852
11
11.3748222
21
5.908852
0
LINE
8
DEFAULT_255_1_234
10
11.3748222
20
5.908852
11
11.3748222
21
6.4823181
0
LINE
8
DEFAULT_255_1_234
10
11.3748222
20
6.4823181
11
11.3571523
21
6.4501912
0
ENDSEC
0
EOF