0
SECTION
2
HEADER
9
$MEASUREMENT
70
1
0
ENDSEC
0
SECTION
2
TABLES
0
TABLE
2
LTYPE
0
LTYPE
72
65
70
64
2
CONTINUOUS
3
______
73
0
40
0
0
ENDTAB
0
TABLE
2
LAYER
0
LAYER
2
DEFAULT_255_2_778
70
0
62
255
6
CONTINUOUS
0
LAYER
2
DEFAULT_255_1_234
70
0
62
255
6
CONTINUOUS
0
ENDTAB
0
ENDSEC
0
SECTION
2
ENTITIES
0
LINE
8
DEFAULT_255_2_778
10
3.5631002
20
1.9843333
11
19.4381002
21
1.9843333
0
LINE
8
DEFAULT_255_2_778
10
19.4381002
20
1.9843333
11
19.4381002
21
-3.3073667
0
LINE
8
DEFAULT_255_2_778
10
19.4381002
20
-3.3073667
11
3.5631002
21
-3.3073667
0
LINE
8
DEFAULT_255_2_778
10
3.5631002
20
-3.3073667
11
3.5631002
21
1.9843333
0
LINE
8
DEFAULT_255_2_778
10
6.2089
20
7.2760665
11
6.2089
21
-3.3072335
0
LINE
8
DEFAULT_255_2_778
10
10.1777
20
1.9843333
11
10.1777
21
-3.3073667
0
LINE
8
DEFAULT_255_2_778
10
8.0610333
20
1.4551666
11
8.5901333
21
1.4551666
0
LINE
8
DEFAULT_255_2_778
10
8.5901333
20
1.4551666
11
8.5901333
21
0.3968666
0
LINE
8
DEFAULT_255_2_778
10
8.5901333
20
0.3968666
11
8.0610333
21
0.3968666
0
LINE
8
DEFAULT_255_2_778
10
8.0610333
20
0.3968666
11
8.0610333
21
-1.7198334
0
LINE
8
DEFAULT_255_2_778
10
8.0610333
20
-1.7198334
11
8.5901333
21
-1.7198334
0
LINE
8
DEFAULT_255_2_778
10
8.5901333
20
-1.7198334
11
8.5901333
21
-2.7781334
0
LINE
8
DEFAULT_255_2_778
10
8.5901333
20
-2.7781334
11
8.0610333
21
-2.7781334
0
LINE
8
DEFAULT_255_2_778
10
8.0610333
20
-2.7781334
11
7.5318333
21
-2.7781334
0
LINE
8
DEFAULT_255_2_778
10
7.5318333
20
-2.7781334
11
7.5318333
21
-1.7198334
0
LINE
8
DEFAULT_255_2_778
10
7.5318333
20
-1.7198334
11
7.5318333
21
0.3968666
0
LINE
8
DEFAULT_255_2_778
10
7.5318333
20
0.3968666
11
7.5318333
21
1.4551666
0
LINE
8
DEFAULT_255_2_778
10
7.5318333
20
1.4551666
11
8.0610333
21
1.4551666
0
ARC
8
DEFAULT_255_2_778
10
22.0850554
20
1.9855303
40
0.5280127
50
359.8710178
51
90.1289822
0
ARC
8
DEFAULT_255_2_778
10
22.0827564
20
1.9855518
40
0.527991
50
89.8795076
51
180.1313257
0
LINE
8
DEFAULT_255_2_778
10
21.5547667
20
1.9843416
11
19.4380667
21
1.9843416
0
LINE
8
DEFAULT_255_2_778
10
19.4380667
20
1.9843416
11
19.4380667
21
0.6614416
0
LINE
8
DEFAULT_255_2_778
10
19.4380667
20
0.6614416
11
24.7297667
21
0.6614416
0
LINE
8
DEFAULT_255_2_778
10
24.7297667
20
0.6614416
11
24.7297667
21
1.9843416
0
LINE
8
DEFAULT_255_2_778
10
24.7297667
20
1.9843416
11
22.6130667
21
1.9843416
0
LINE
8
DEFAULT_255_2_778
10
21.5547667
20
1.9843416
11
21.5547667
21
1.9843416
0
ARC
8
DEFAULT_255_2_778
10
22.0850554
20
-3.308447
40
0.5280127
50
269.8710178
51
0.1289822
0
ARC
8
DEFAULT_255_2_778
10
22.0827564
20
-3.3084685
40
0.527991
50
179.8686743
51
270.1204924
0
LINE
8
DEFAULT_255_2_778
10
21.5547667
20
-3.3072584
11
19.4380667
21
-3.3072584
0
LINE
8
DEFAULT_255_2_778
10
19.4380667
20
-3.3072584
11
19.4380667
21
-1.9843584
0
LINE
8
DEFAULT_255_2_778
10
19.4380667
20
-1.9843584
11
24.7297667
21
-1.9843584
0
LINE
8
DEFAULT_255_2_778
10
24.7297667
20
-1.9843584
11
24.7297667
21
-3.3072584
0
LINE
8
DEFAULT_255_2_778
10
24.7297667
20
-3.3072584
11
22.6130667
21
-3.3072584
0
LINE
8
DEFAULT_255_2_778
10
21.5547667
20
-3.3072584
11
21.5547667
21
-3.3072584
0
LINE
8
DEFAULT_255_2_778
10
16.7923
20
7.2760333
11
16.7923
21
1.9843333
0
LINE
8
DEFAULT_255_1_234
10
3.7635137
20
6.1620433
11
3.7635137
21
4.987
0
LINE
8
DEFAULT_255_1_234
10
3.7635137
20
4.987
11
3.6141234
21
4.987
0
LINE
8
DEFAULT_255_1_234
10
3.6141234
20
4.987
11
3.6141234
21
5.9773133
0
LINE
8
DEFAULT_255_1_234
10
3.6141234
20
5.9773133
11
3.3145396
21
5.8672785
0
LINE
8
DEFAULT_255_1_234
10
3.3145396
20
5.8672785
11
3.3145396
21
6.0022117
0
LINE
8
DEFAULT_255_1_234
10
3.3145396
20
6.0022117
11
3.7402217
21
6.1620433
0
LINE
8
DEFAULT_255_1_234
10
3.7402217
20
6.1620433
11
3.7635137
21
6.1620433
0
LINE
8
DEFAULT_255_1_234
10
4.9650618
20
5.1082792
11
4.9650618
21
4.987
0
LINE
8
DEFAULT_255_1_234
10
4.9650618
20
4.987
11
4.1988339
21
4.987
0
LINE
8
DEFAULT_255_1_234
10
4.1988339
20
4.987
11
4.1988339
21
5.0938221
0
LINE
8
DEFAULT_255_1_234
10
4.1988339
20
5.0938221
11
4.6036335
21
5.5435995
0
LINE
8
DEFAULT_255_1_234
10
4.3249322
20
5.8118595
11
4.1763451
21
5.8118595
0
LINE
8
DEFAULT_255_1_234
10
4.6911795
20
5.4480218
11
4.3779417
21
5.1082792
0
LINE
8
DEFAULT_255_1_234
10
4.3779417
20
5.1082792
11
4.9650618
21
5.1082792
0
ARC
8
DEFAULT_255_1_234
10
3.2546169
20
6.7365527
40
1.8008286
50
318.5132453
51
320.7828378
0
ARC
8
DEFAULT_255_1_234
10
3.7833143
20
6.3062426
40
1.1191493
50
320.7372736
51
323.9737074
0
ARC
8
DEFAULT_255_1_234
10
4.1753
20
6.0222361
40
0.6350923
50
323.8961724
51
328.6421089
0
ARC
8
DEFAULT_255_1_234
10
4.3799595
20
5.8960031
40
0.3946393
50
328.8299013
51
331.789948
0
ARC
8
DEFAULT_255_1_234
10
4.4796774
20
5.8445509
40
0.2824501
50
331.4255242
51
352.9364833
0
ARC
8
DEFAULT_255_1_234
10
4.4933274
20
5.8414976
40
0.2685315
50
353.2248685
51
0.0169286
0
ARC
8
DEFAULT_255_1_234
10
4.5143151
20
5.843795
40
0.2475536
50
359.4866256
51
15.9339782
0
ARC
8
DEFAULT_255_1_234
10
4.5650136
20
5.8574286
40
0.1950618
50
16.1714718
51
43.5284424
0
ARC
8
DEFAULT_255_1_234
10
4.5727445
20
5.8651573
40
0.184134
50
43.4415429
51
83.1661404
0
ARC
8
DEFAULT_255_1_234
10
4.5593363
20
5.7914771
40
0.258926
50
82.160215
51
90.1505798
0
ARC
8
DEFAULT_255_1_234
10
4.556179
20
5.7377865
40
0.3126255
50
89.5460705
51
102.5418777
0
ARC
8
DEFAULT_255_1_234
10
4.5318876
20
5.8408665
40
0.2067346
50
102.1739365
51
129.2061916
0
ARC
8
DEFAULT_255_1_234
10
4.5239948
20
5.8533094
40
0.1921118
50
129.7279328
51
135.7542026
0
ARC
8
DEFAULT_255_1_234
10
4.5361476
20
5.8436045
40
0.2075944
50
136.175737
51
166.3674722
0
ARC
8
DEFAULT_255_1_234
10
4.6368395
20
5.8166182
40
0.3118201
50
165.9092917
51
178.8683903
0
ARC
8
DEFAULT_255_1_234
10
4.7233256
20
5.8119179
40
0.3983935
50
178.438168
51
180.0083905
0
ARC
8
DEFAULT_255_1_234
10
4.5831859
20
5.8158231
40
0.4068601
50
163.2878735
51
180.5581814
0
ARC
8
DEFAULT_255_1_234
10
4.503012
20
5.837884
40
0.3237344
50
133.454115
51
162.9470031
0
ARC
8
DEFAULT_255_1_234
10
4.5208661
20
5.8189
40
0.349795
50
100.7869394
51
133.4384016
0
ARC
8
DEFAULT_255_1_234
10
4.5556433
20
5.6640319
40
0.5084616
50
89.6605301
51
101.3704185
0
ARC
8
DEFAULT_255_1_234
10
4.5622772
20
5.6701496
40
0.502348
50
78.2171172
51
90.4130393
0
ARC
8
DEFAULT_255_1_234
10
4.597785
20
5.8325637
40
0.3361092
50
55.9268222
51
78.4888551
0
ARC
8
DEFAULT_255_1_234
10
4.617429
20
5.8664324
40
0.2970617
50
47.9292255
51
55.4054003
0
ARC
8
DEFAULT_255_1_234
10
4.6275851
20
5.8767502
40
0.2825983
50
4.3347696
51
48.0560701
0
ARC
8
DEFAULT_255_1_234
10
4.5180244
20
5.8597601
40
0.393225
50
359.925209
51
5.5967654
0
ARC
8
DEFAULT_255_1_234
10
4.5609136
20
5.8653816
40
0.3503892
50
337.8914096
51
358.9967724
0
ARC
8
DEFAULT_255_1_234
10
4.2895548
20
5.9700706
40
0.6412172
50
326.9135351
51
338.3505194
0
ARC
8
DEFAULT_255_1_234
10
3.8909852
20
6.2255284
40
1.1146189
50
319.6472867
51
327.095818
0
ARC
8
DEFAULT_255_1_234
10
3.5076855
20
6.5417
40
1.6114559
50
317.2586784
51
319.9046139
0
ENDSEC
0
EOF