0
SECTION
2
HEADER
9
$MEASUREMENT
70
1
0
ENDSEC
0
SECTION
2
TABLES
0
TABLE
2
LTYPE
0
LTYPE
72
65
70
64
2
CONTINUOUS
3
______
73
0
40
0
0
ENDTAB
0
TABLE
2
LAYER
0
LAYER
2
DEFAULT_255_2_778
70
0
62
255
6
CONTINUOUS
0
LAYER
2
DEFAULT_255_1_388
70
0
62
255
6
CONTINUOUS
0
ENDTAB
0
ENDSEC
0
SECTION
2
ENTITIES
0
ARC
8
DEFAULT_255_2_778
10
15.7712769
20
4.6587781
40
3.1463583
50
74.2210094
51
90.0815208
0
ARC
8
DEFAULT_255_2_778
10
15.8217895
20
4.8302147
40
2.9676467
50
53.9311014
51
74.2594469
0
ARC
8
DEFAULT_255_2_778
10
16.0750068
20
5.124471
40
2.580904
50
5.5401352
51
54.6289126
0
ARC
8
DEFAULT_255_2_778
10
16.171562
20
5.1596315
40
2.4815383
50
359.993113
51
4.9473281
0
ARC
8
DEFAULT_255_2_778
10
16.1925803
20
5.1579046
40
2.4605203
50
334.8626789
51
0.033268
0
ARC
8
DEFAULT_255_2_778
10
15.9802263
20
5.2748002
40
2.7024639
50
302.6790508
51
334.5315341
0
ARC
8
DEFAULT_255_2_778
10
15.8106685
20
5.5130956
40
2.9946219
50
283.3485832
51
302.9479594
0
ARC
8
DEFAULT_255_2_778
10
15.7701268
20
5.6729633
40
3.1595316
50
269.9396752
51
283.3945898
0
ARC
8
DEFAULT_255_2_778
10
5.6599009
20
5.6601883
40
3.1467582
50
254.2213891
51
270.0819235
0
ARC
8
DEFAULT_255_2_778
10
5.6094577
20
5.4886798
40
2.9679964
50
234.063202
51
254.2581767
0
ARC
8
DEFAULT_255_2_778
10
5.3570433
20
5.1943937
40
2.5817772
50
185.5557848
51
234.7657597
0
ARC
8
DEFAULT_255_2_778
10
5.2601686
20
5.1590352
40
2.4820685
50
179.9931194
51
184.9598974
0
ARC
8
DEFAULT_255_2_778
10
5.2383956
20
5.1608444
40
2.4602959
50
155.2435213
51
180.0351918
0
ARC
8
DEFAULT_255_2_778
10
5.449388
20
5.0455574
40
2.7002245
50
122.5920706
51
154.8968882
0
ARC
8
DEFAULT_255_2_778
10
5.6204463
20
4.8051209
40
2.9949756
50
103.3159231
51
122.8715535
0
ARC
8
DEFAULT_255_2_778
10
5.6610673
20
4.6445004
40
3.1606345
50
89.9395803
51
103.3618719
0
LINE
8
DEFAULT_255_2_778
10
15.7668002
20
2.5134333
11
5.6644002
21
2.5134333
0
LINE
8
DEFAULT_255_2_778
10
5.6644002
20
7.8051333
11
15.7668002
21
7.8051333
0
LINE
8
DEFAULT_255_2_778
10
2.7781002
20
7.8052
11
18.6531002
21
7.8052
0
LINE
8
DEFAULT_255_2_778
10
2.7781002
20
2.5135
11
18.6531002
21
2.5135
0
LINE
8
DEFAULT_255_2_778
10
10.7156
20
-2.7781667
11
10.7156
21
2.5135333
0
LINE
8
DEFAULT_255_1_388
10
8.2172985
20
-0.5084852
11
8.2172985
21
-1.8304
0
LINE
8
DEFAULT_255_1_388
10
8.2172985
20
-1.8304
11
8.0492355
21
-1.8304
0
LINE
8
DEFAULT_255_1_388
10
8.0492355
20
-1.8304
11
8.0492355
21
-0.716305
0
LINE
8
DEFAULT_255_1_388
10
8.0492355
20
-0.716305
11
7.712206
21
-0.8400934
0
LINE
8
DEFAULT_255_1_388
10
7.712206
20
-0.8400934
11
7.712206
21
-0.6882945
0
LINE
8
DEFAULT_255_1_388
10
7.712206
20
-0.6882945
11
8.1910951
21
-0.5084852
0
LINE
8
DEFAULT_255_1_388
10
8.1910951
20
-0.5084852
11
8.2172985
21
-0.5084852
0
ENDSEC
0
EOF