0
SECTION
2
HEADER
9
$MEASUREMENT
70
1
0
ENDSEC
0
SECTION
2
TABLES
0
TABLE
2
LTYPE
0
LTYPE
72
65
70
64
2
CONTINUOUS
3
______
73
0
40
0
0
ENDTAB
0
TABLE
2
LAYER
0
LAYER
2
DEFAULT_255_2_778
70
0
62
255
6
CONTINUOUS
0
LAYER
2
DEFAULT_255_1_234
70
0
62
255
6
CONTINUOUS
0
ENDTAB
0
ENDSEC
0
SECTION
2
ENTITIES
0
LINE
8
DEFAULT_255_2_778
10
6.614575
20
7.0114667
11
4.233375
21
7.0114667
0
LINE
8
DEFAULT_255_2_778
10
4.233375
20
7.0114667
11
4.233375
21
5.9531667
0
LINE
8
DEFAULT_255_2_778
10
4.233375
20
5.9531667
11
6.614575
21
5.9531667
0
ARC
8
DEFAULT_255_2_778
10
10.6136059
20
6.4861294
40
3.9990575
50
164.958672
51
180.0541499
0
ARC
8
DEFAULT_255_2_778
10
10.5652844
20
6.4957887
40
3.9498864
50
139.5324886
51
164.9120823
0
ARC
8
DEFAULT_255_2_778
10
10.5739121
20
6.4925868
40
3.9585294
50
107.8307628
51
139.5782791
0
ARC
8
DEFAULT_255_2_778
10
10.5767531
20
6.4700154
40
3.9808888
50
91.6628438
51
107.7702122
0
ARC
8
DEFAULT_255_2_778
10
10.5831728
20
6.3702686
40
4.0807814
50
89.9989151
51
91.7123026
0
ARC
8
DEFAULT_255_2_778
10
10.5870333
20
6.451708
40
3.9993437
50
74.9592121
51
90.0541994
0
ARC
8
DEFAULT_255_2_778
10
10.5967483
20
6.5002176
40
3.9499763
50
49.5331489
51
74.9127022
0
ARC
8
DEFAULT_255_2_778
10
10.5936326
20
6.4916957
40
3.958483
50
17.8308607
51
49.5788931
0
ARC
8
DEFAULT_255_2_778
10
10.571035
20
6.4888475
40
3.9808695
50
1.662844
51
17.7702931
0
ARC
8
DEFAULT_255_2_778
10
10.4712688
20
6.4824272
40
4.0807814
50
359.9989151
51
1.7123026
0
ARC
8
DEFAULT_255_2_778
10
10.5527193
20
6.478566
40
3.9993326
50
344.9591794
51
0.05421
0
ARC
8
DEFAULT_255_2_778
10
10.6012606
20
6.4688458
40
3.9499331
50
319.5327264
51
344.9126214
0
ARC
8
DEFAULT_255_2_778
10
10.5926769
20
6.4720261
40
3.9585286
50
287.8301403
51
319.57834
0
ARC
8
DEFAULT_255_2_778
10
10.5897544
20
6.4948298
40
3.9811341
50
271.6627163
51
287.7696917
0
ARC
8
DEFAULT_255_2_778
10
10.5833274
20
6.5947019
40
4.0811521
50
269.9989151
51
271.7122237
0
ARC
8
DEFAULT_255_2_778
10
10.5794699
20
6.5125946
40
3.9990465
50
254.9586392
51
270.0541605
0
ARC
8
DEFAULT_255_2_778
10
10.5698055
20
6.4642414
40
3.9498431
50
229.5320661
51
254.9120015
0
ARC
8
DEFAULT_255_2_778
10
10.5730719
20
6.4729308
40
3.958575
50
197.8300424
51
229.577726
0
ARC
8
DEFAULT_255_2_778
10
10.5958494
20
6.4758462
40
3.9811535
50
181.6627161
51
197.7696108
0
ARC
8
DEFAULT_255_2_778
10
10.6957021
20
6.4822726
40
4.0811521
50
179.9989151
51
181.7122237
0
LINE
8
DEFAULT_255_2_778
10
6.6145501
20
6.4823499
11
6.6145501
21
6.4823499
0
LINE
8
DEFAULT_255_2_778
10
10.5833
20
15.7426333
11
10.5833
21
10.4509333
0
LINE
8
DEFAULT_255_2_778
10
10.5833
20
2.5135333
11
10.5833
21
-2.7781667
0
LINE
8
DEFAULT_255_2_778
10
9.2604417
20
10.1864645
11
7.9375417
21
3.5057645
0
LINE
8
DEFAULT_255_2_778
10
11.9062417
20
10.1864645
11
13.2291417
21
3.5057645
0
LINE
8
DEFAULT_255_1_234
10
8.0695137
20
14.6291433
11
8.0695137
21
13.4541
0
LINE
8
DEFAULT_255_1_234
10
8.0695137
20
13.4541
11
7.9201234
21
13.4541
0
LINE
8
DEFAULT_255_1_234
10
7.9201234
20
13.4541
11
7.9201234
21
14.4444133
0
LINE
8
DEFAULT_255_1_234
10
7.9201234
20
14.4444133
11
7.6205396
21
14.3343785
0
LINE
8
DEFAULT_255_1_234
10
7.6205396
20
14.3343785
11
7.6205396
21
14.4693117
0
LINE
8
DEFAULT_255_1_234
10
7.6205396
20
14.4693117
11
8.0462217
21
14.6291433
0
LINE
8
DEFAULT_255_1_234
10
8.0462217
20
14.6291433
11
8.0695137
21
14.6291433
0
LINE
8
DEFAULT_255_1_234
10
8.3391119
20
-1.7212208
11
8.3391119
21
-1.8425
0
LINE
8
DEFAULT_255_1_234
10
8.3391119
20
-1.8425
11
7.572884
21
-1.8425
0
LINE
8
DEFAULT_255_1_234
10
7.572884
20
-1.8425
11
7.572884
21
-1.7356779
0
LINE
8
DEFAULT_255_1_234
10
7.572884
20
-1.7356779
11
7.9776836
21
-1.2859005
0
LINE
8
DEFAULT_255_1_234
10
7.6989823
20
-1.0176405
11
7.5503952
21
-1.0176405
0
LINE
8
DEFAULT_255_1_234
10
8.0652296
20
-1.3814782
11
7.7519918
21
-1.7212208
0
LINE
8
DEFAULT_255_1_234
10
7.7519918
20
-1.7212208
11
8.3391119
21
-1.7212208
0
ARC
8
DEFAULT_255_1_234
10
6.628667
20
-0.0929473
40
1.8008286
50
318.5132453
51
320.7828378
0
ARC
8
DEFAULT_255_1_234
10
7.1573644
20
-0.5232574
40
1.1191493
50
320.7372736
51
323.9737074
0
ARC
8
DEFAULT_255_1_234
10
7.5493501
20
-0.8072639
40
0.6350923
50
323.8961724
51
328.6421089
0
ARC
8
DEFAULT_255_1_234
10
7.7540096
20
-0.9334969
40
0.3946393
50
328.8299013
51
331.789948
0
ARC
8
DEFAULT_255_1_234
10
7.8537274
20
-0.9849491
40
0.2824501
50
331.4255242
51
352.9364833
0
ARC
8
DEFAULT_255_1_234
10
7.8673775
20
-0.9880024
40
0.2685315
50
353.2248685
51
0.0169286
0
ARC
8
DEFAULT_255_1_234
10
7.8883652
20
-0.985705
40
0.2475536
50
359.4866256
51
15.9339782
0
ARC
8
DEFAULT_255_1_234
10
7.9390637
20
-0.9720714
40
0.1950618
50
16.1714718
51
43.5284424
0
ARC
8
DEFAULT_255_1_234
10
7.9467946
20
-0.9643427
40
0.184134
50
43.4415429
51
83.1661404
0
ARC
8
DEFAULT_255_1_234
10
7.9333864
20
-1.0380229
40
0.258926
50
82.160215
51
90.1505798
0
ARC
8
DEFAULT_255_1_234
10
7.9302291
20
-1.0917135
40
0.3126255
50
89.5460705
51
102.5418777
0
ARC
8
DEFAULT_255_1_234
10
7.9059377
20
-0.9886335
40
0.2067346
50
102.1739365
51
129.2061916
0
ARC
8
DEFAULT_255_1_234
10
7.8980449
20
-0.9761906
40
0.1921118
50
129.7279328
51
135.7542026
0
ARC
8
DEFAULT_255_1_234
10
7.9101977
20
-0.9858955
40
0.2075944
50
136.175737
51
166.3674722
0
ARC
8
DEFAULT_255_1_234
10
8.0108896
20
-1.0128818
40
0.3118201
50
165.9092917
51
178.8683903
0
ARC
8
DEFAULT_255_1_234
10
8.0973757
20
-1.0175821
40
0.3983935
50
178.438168
51
180.0083905
0
ARC
8
DEFAULT_255_1_234
10
7.9572359
20
-1.0136769
40
0.4068601
50
163.2878735
51
180.5581814
0
ARC
8
DEFAULT_255_1_234
10
7.8770621
20
-0.991616
40
0.3237344
50
133.454115
51
162.9470031
0
ARC
8
DEFAULT_255_1_234
10
7.8949162
20
-1.0106
40
0.349795
50
100.7869394
51
133.4384016
0
ARC
8
DEFAULT_255_1_234
10
7.9296934
20
-1.1654681
40
0.5084616
50
89.6605301
51
101.3704185
0
ARC
8
DEFAULT_255_1_234
10
7.9363273
20
-1.1593504
40
0.502348
50
78.2171172
51
90.4130393
0
ARC
8
DEFAULT_255_1_234
10
7.9718351
20
-0.9969363
40
0.3361092
50
55.9268222
51
78.4888551
0
ARC
8
DEFAULT_255_1_234
10
7.9914791
20
-0.9630676
40
0.2970617
50
47.9292255
51
55.4054003
0
ARC
8
DEFAULT_255_1_234
10
8.0016352
20
-0.9527498
40
0.2825983
50
4.3347696
51
48.0560701
0
ARC
8
DEFAULT_255_1_234
10
7.8920745
20
-0.9697399
40
0.393225
50
359.925209
51
5.5967654
0
ARC
8
DEFAULT_255_1_234
10
7.9349637
20
-0.9641184
40
0.3503892
50
337.8914096
51
358.9967724
0
ARC
8
DEFAULT_255_1_234
10
7.6636049
20
-0.8594294
40
0.6412172
50
326.9135351
51
338.3505194
0
ARC
8
DEFAULT_255_1_234
10
7.2650353
20
-0.6039716
40
1.1146189
50
319.6472867
51
327.095818
0
ARC
8
DEFAULT_255_1_234
10
6.8817356
20
-0.2878
40
1.6114559
50
317.2586784
51
319.9046139
0
ENDSEC
0
EOF