0
SECTION
2
HEADER
9
$MEASUREMENT
70
1
0
ENDSEC
0
SECTION
2
TABLES
0
TABLE
2
LTYPE
0
LTYPE
72
65
70
64
2
CONTINUOUS
3
______
73
0
40
0
0
ENDTAB
0
TABLE
2
LAYER
0
LAYER
2
DEFAULT_255_2_778
70
0
62
255
6
CONTINUOUS
0
LAYER
2
DEFAULT_255_1_388
70
0
62
255
6
CONTINUOUS
0
ENDTAB
0
ENDSEC
0
SECTION
2
ENTITIES
0
LINE
8
DEFAULT_255_2_778
10
6.614575
20
7.0114667
11
4.233375
21
7.0114667
0
LINE
8
DEFAULT_255_2_778
10
4.233375
20
7.0114667
11
4.233375
21
5.9531667
0
LINE
8
DEFAULT_255_2_778
10
4.233375
20
5.9531667
11
6.614575
21
5.9531667
0
ARC
8
DEFAULT_255_2_778
10
10.6136059
20
6.4861294
40
3.9990575
50
164.958672
51
180.0541499
0
ARC
8
DEFAULT_255_2_778
10
10.5652844
20
6.4957887
40
3.9498864
50
139.5324886
51
164.9120823
0
ARC
8
DEFAULT_255_2_778
10
10.5739121
20
6.4925868
40
3.9585294
50
107.8307628
51
139.5782791
0
ARC
8
DEFAULT_255_2_778
10
10.5767531
20
6.4700154
40
3.9808888
50
91.6628438
51
107.7702122
0
ARC
8
DEFAULT_255_2_778
10
10.5831728
20
6.3702686
40
4.0807814
50
89.9989151
51
91.7123026
0
ARC
8
DEFAULT_255_2_778
10
10.5870333
20
6.451708
40
3.9993437
50
74.9592121
51
90.0541994
0
ARC
8
DEFAULT_255_2_778
10
10.5967483
20
6.5002176
40
3.9499763
50
49.5331489
51
74.9127022
0
ARC
8
DEFAULT_255_2_778
10
10.5936326
20
6.4916957
40
3.958483
50
17.8308607
51
49.5788931
0
ARC
8
DEFAULT_255_2_778
10
10.571035
20
6.4888475
40
3.9808695
50
1.662844
51
17.7702931
0
ARC
8
DEFAULT_255_2_778
10
10.4712688
20
6.4824272
40
4.0807814
50
359.9989151
51
1.7123026
0
ARC
8
DEFAULT_255_2_778
10
10.5527193
20
6.478566
40
3.9993326
50
344.9591794
51
0.05421
0
ARC
8
DEFAULT_255_2_778
10
10.6012606
20
6.4688458
40
3.9499331
50
319.5327264
51
344.9126214
0
ARC
8
DEFAULT_255_2_778
10
10.5926769
20
6.4720261
40
3.9585286
50
287.8301403
51
319.57834
0
ARC
8
DEFAULT_255_2_778
10
10.5897544
20
6.4948298
40
3.9811341
50
271.6627163
51
287.7696917
0
ARC
8
DEFAULT_255_2_778
10
10.5833274
20
6.5947019
40
4.0811521
50
269.9989151
51
271.7122237
0
ARC
8
DEFAULT_255_2_778
10
10.5794699
20
6.5125946
40
3.9990465
50
254.9586392
51
270.0541605
0
ARC
8
DEFAULT_255_2_778
10
10.5698055
20
6.4642414
40
3.9498431
50
229.5320661
51
254.9120015
0
ARC
8
DEFAULT_255_2_778
10
10.5730719
20
6.4729308
40
3.958575
50
197.8300424
51
229.577726
0
ARC
8
DEFAULT_255_2_778
10
10.5958494
20
6.4758462
40
3.9811535
50
181.6627161
51
197.7696108
0
ARC
8
DEFAULT_255_2_778
10
10.6957021
20
6.4822726
40
4.0811521
50
179.9989151
51
181.7122237
0
LINE
8
DEFAULT_255_2_778
10
6.6145501
20
6.4823499
11
6.6145501
21
6.4823499
0
LINE
8
DEFAULT_255_2_778
10
10.5833
20
15.7426333
11
10.5833
21
10.4509333
0
LINE
8
DEFAULT_255_2_778
10
10.5833
20
2.5135333
11
10.5833
21
-2.7781667
0
LINE
8
DEFAULT_255_2_778
10
9.2604417
20
10.1864645
11
7.9375417
21
3.5057645
0
LINE
8
DEFAULT_255_2_778
10
11.9062417
20
10.1864645
11
13.2291417
21
3.5057645
0
LINE
8
DEFAULT_255_1_388
10
8.0845985
20
14.7876148
11
8.0845985
21
13.4657
0
LINE
8
DEFAULT_255_1_388
10
8.0845985
20
13.4657
11
7.9165355
21
13.4657
0
LINE
8
DEFAULT_255_1_388
10
7.9165355
20
13.4657
11
7.9165355
21
14.579795
0
LINE
8
DEFAULT_255_1_388
10
7.9165355
20
14.579795
11
7.579506
21
14.4560066
0
LINE
8
DEFAULT_255_1_388
10
7.579506
20
14.4560066
11
7.579506
21
14.6078055
0
LINE
8
DEFAULT_255_1_388
10
7.579506
20
14.6078055
11
8.0583951
21
14.7876148
0
LINE
8
DEFAULT_255_1_388
10
8.0583951
20
14.7876148
11
8.0845985
21
14.7876148
0
LINE
8
DEFAULT_255_1_388
10
8.3889318
20
-1.6944618
11
8.3889318
21
-1.8309
0
LINE
8
DEFAULT_255_1_388
10
8.3889318
20
-1.8309
11
7.5269313
21
-1.8309
0
LINE
8
DEFAULT_255_1_388
10
7.5269313
20
-1.8309
11
7.5269313
21
-1.7107259
0
LINE
8
DEFAULT_255_1_388
10
7.5269313
20
-1.7107259
11
7.9823278
21
-1.2047298
0
LINE
8
DEFAULT_255_1_388
10
7.6687909
20
-0.9029393
11
7.5016315
21
-0.9029393
0
LINE
8
DEFAULT_255_1_388
10
8.0808163
20
-1.312254
11
7.7284262
21
-1.6944618
0
LINE
8
DEFAULT_255_1_388
10
7.7284262
20
-1.6944618
11
8.3889318
21
-1.6944618
0
ARC
8
DEFAULT_255_1_388
10
6.4647337
20
0.1372983
40
2.0258655
50
318.5132526
51
320.7829045
0
ARC
8
DEFAULT_255_1_388
10
7.0595294
20
-0.3468071
40
1.2589638
50
320.7372878
51
323.9739031
0
ARC
8
DEFAULT_255_1_388
10
7.5004226
20
-0.6662446
40
0.7145141
50
323.8962701
51
328.64194
0
ARC
8
DEFAULT_255_1_388
10
7.7306484
20
-0.8082455
40
0.4440242
50
328.8294576
51
331.7891185
0
ARC
8
DEFAULT_255_1_388
10
7.8428804
20
-0.8661626
40
0.3177517
50
331.4254512
51
352.9365785
0
ARC
8
DEFAULT_255_1_388
10
7.8581804
20
-0.869595
40
0.3021496
50
353.2257659
51
0.0166158
0
ARC
8
DEFAULT_255_1_388
10
7.8818564
20
-0.8670106
40
0.2784847
50
359.486299
51
15.9343185
0
ARC
8
DEFAULT_255_1_388
10
7.9388831
20
-0.8516731
40
0.2194403
50
16.1712913
51
43.5286088
0
ARC
8
DEFAULT_255_1_388
10
7.9475776
20
-0.8429809
40
0.2071504
50
43.4417391
51
83.1661095
0
ARC
8
DEFAULT_255_1_388
10
7.9324937
20
-0.9258684
40
0.2912888
50
82.160179
51
90.1505708
0
ARC
8
DEFAULT_255_1_388
10
7.9289418
20
-0.9862721
40
0.3517025
50
89.5460741
51
102.5418361
0
ARC
8
DEFAULT_255_1_388
10
7.9016138
20
-0.8703067
40
0.2325748
50
102.1738499
51
129.206123
0
ARC
8
DEFAULT_255_1_388
10
7.8927592
20
-0.8563336
40
0.2161591
50
129.72865
51
135.753947
0
ARC
8
DEFAULT_255_1_388
10
7.9064074
20
-0.8672272
40
0.2335433
50
136.1757367
51
166.3673339
0
ARC
8
DEFAULT_255_1_388
10
8.0196762
20
-0.8975852
40
0.3507873
50
165.9090694
51
178.8684636
0
ARC
8
DEFAULT_255_1_388
10
8.1172534
20
-0.9028737
40
0.4484624
50
178.4391136
51
180.0083808
0
ARC
8
DEFAULT_255_1_388
10
7.9593235
20
-0.8984803
40
0.4577138
50
163.2878482
51
180.5581842
0
ARC
8
DEFAULT_255_1_388
10
7.8691276
20
-0.8736607
40
0.3641968
50
133.4540601
51
162.947111
0
ARC
8
DEFAULT_255_1_388
10
7.8892158
20
-0.8950211
40
0.3935189
50
100.7869829
51
133.4382499
0
ARC
8
DEFAULT_255_1_388
10
7.9283403
20
-1.0692601
40
0.5720313
50
89.660664
51
101.3702276
0
ARC
8
DEFAULT_255_1_388
10
7.9358012
20
-1.0623737
40
0.5651495
50
78.2172678
51
90.412935
0
ARC
8
DEFAULT_255_1_388
10
7.9757478
20
-0.8796489
40
0.378122
50
55.9269121
51
78.4888449
0
ARC
8
DEFAULT_255_1_388
10
7.9978193
20
-0.8415813
40
0.3342379
50
47.929771
51
55.4049217
0
ARC
8
DEFAULT_255_1_388
10
8.0092723
20
-0.8299382
40
0.3179217
50
4.334829
51
48.0560205
0
ARC
8
DEFAULT_255_1_388
10
7.8860525
20
-0.8490513
40
0.442341
50
359.9251713
51
5.5971671
0
ARC
8
DEFAULT_255_1_388
10
7.934268
20
-0.8427272
40
0.3941854
50
337.8914027
51
358.9967534
0
ARC
8
DEFAULT_255_1_388
10
7.629025
20
-0.7249705
40
0.7213271
50
326.9132501
51
338.3508308
0
ARC
8
DEFAULT_255_1_388
10
7.1806362
20
-0.4375895
40
1.2538973
50
319.6471833
51
327.0959558
0
ARC
8
DEFAULT_255_1_388
10
6.749302
20
-0.081795
40
1.8129975
50
317.2588228
51
319.9045804
0
ENDSEC
0
EOF