0
SECTION
2
HEADER
9
$MEASUREMENT
70
1
0
ENDSEC
0
SECTION
2
TABLES
0
TABLE
2
LTYPE
0
LTYPE
72
65
70
64
2
CONTINUOUS
3
______
73
0
40
0
0
ENDTAB
0
TABLE
2
LAYER
0
LAYER
2
DEFAULT_255_2_778
70
0
62
255
6
CONTINUOUS
0
LAYER
2
DEFAULT_255_1_234
70
0
62
255
6
CONTINUOUS
0
ENDTAB
0
ENDSEC
0
SECTION
2
ENTITIES
0
LINE
8
DEFAULT_255_2_778
10
7.143675
20
7.0114667
11
4.762475
21
7.0114667
0
LINE
8
DEFAULT_255_2_778
10
4.762475
20
7.0114667
11
4.762475
21
5.9531667
0
LINE
8
DEFAULT_255_2_778
10
4.762475
20
5.9531667
11
7.143675
21
5.9531667
0
LINE
8
DEFAULT_255_2_778
10
11.1125
20
15.7426333
11
11.1125
21
10.4509333
0
LINE
8
DEFAULT_255_2_778
10
11.1125
20
2.5135333
11
11.1125
21
-2.7781667
0
ARC
8
DEFAULT_255_2_778
10
11.1169539
20
6.504378
40
3.9908206
50
269.9941361
51
286.7388848
0
ARC
8
DEFAULT_255_2_778
10
11.1167501
20
6.70228
40
4.1887226
50
269.9412091
51
269.9972003
0
ARC
8
DEFAULT_255_2_778
10
11.1081552
20
6.7003937
40
4.1868364
50
270.0028002
51
270.0588024
0
ARC
8
DEFAULT_255_2_778
10
11.1080256
20
6.5042102
40
3.9906529
50
253.2607608
51
270.0047978
0
LINE
8
DEFAULT_255_2_778
10
9.9586521
20
2.6826595
11
11.1124521
21
3.8364595
0
LINE
8
DEFAULT_255_2_778
10
11.1124521
20
3.8364595
11
12.2663521
21
2.6826595
0
ARC
8
DEFAULT_255_2_778
10
11.101525
20
6.4953819
40
3.9553125
50
106.7949136
51
135.1938105
0
ARC
8
DEFAULT_255_2_778
10
11.098232
20
6.493859
40
3.9540508
50
135.1445265
51
163.1900034
0
ARC
8
DEFAULT_255_2_778
10
11.1312872
20
6.4877732
40
3.9874553
50
163.2436542
51
178.9979493
0
ARC
8
DEFAULT_255_2_778
10
11.230925
20
6.48231
40
4.087175
50
178.9458023
51
180.0004046
0
ARC
8
DEFAULT_255_2_778
10
11.14239
20
6.4784324
40
3.9986417
50
179.9448524
51
195.2182825
0
ARC
8
DEFAULT_255_2_778
10
11.0947755
20
6.4688734
40
3.9501892
50
195.265783
51
220.7141922
0
ARC
8
DEFAULT_255_2_778
10
11.1027041
20
6.4715015
40
3.9579144
50
220.6681619
51
252.1623921
0
ARC
8
DEFAULT_255_2_778
10
11.0962965
20
6.4581737
40
3.943265
50
252.191699
51
253.2316056
0
ARC
8
DEFAULT_255_2_778
10
11.1241581
20
6.4682087
40
3.954185
50
286.7895084
51
315.1962183
0
ARC
8
DEFAULT_255_2_778
10
11.126453
20
6.4707793
40
3.9543696
50
315.1463596
51
343.190507
0
ARC
8
DEFAULT_255_2_778
10
11.0936521
20
6.4768166
40
3.9875167
50
343.2437632
51
358.9976257
0
ARC
8
DEFAULT_255_2_778
10
10.9944974
20
6.4822525
40
4.0867528
50
358.9457465
51
0.0004022
0
ARC
8
DEFAULT_255_2_778
10
11.0823988
20
6.4861402
40
3.9988531
50
359.9447071
51
15.2178794
0
ARC
8
DEFAULT_255_2_778
10
11.1303804
20
6.4958012
40
3.9500196
50
15.2653467
51
40.7147952
0
ARC
8
DEFAULT_255_2_778
10
11.1223185
20
6.4930226
40
3.957944
50
40.669158
51
72.1628708
0
ARC
8
DEFAULT_255_2_778
10
11.1280251
20
6.504173
40
3.945582
50
72.1921572
51
73.2314528
0
LINE
8
DEFAULT_255_2_778
10
12.2663501
20
10.2819811
11
11.1124501
21
9.1281811
0
LINE
8
DEFAULT_255_2_778
10
11.1124501
20
9.1281811
11
9.9586501
21
10.2819811
0
LINE
8
DEFAULT_255_2_778
10
9.9586501
20
2.6825811
11
11.1124501
21
3.8364811
0
LINE
8
DEFAULT_255_2_778
10
11.1124501
20
3.8364811
11
12.2663501
21
2.6825811
0
LINE
8
DEFAULT_255_2_778
10
12.2663501
20
10.2819811
11
12.2663501
21
10.2819811
0
ARC
8
DEFAULT_255_2_778
10
11.1169539
20
6.460241
40
3.9908206
50
73.2611152
51
90.0058639
0
ARC
8
DEFAULT_255_2_778
10
11.1167501
20
6.262339
40
4.1887226
50
90.0027997
51
90.0587909
0
ARC
8
DEFAULT_255_2_778
10
11.1081552
20
6.2642253
40
4.1868364
50
89.9411976
51
89.9971998
0
ARC
8
DEFAULT_255_2_778
10
11.1080256
20
6.4604087
40
3.9906529
50
89.9952022
51
106.7392392
0
LINE
8
DEFAULT_255_2_778
10
9.9586521
20
10.2819595
11
11.1124521
21
9.1281595
0
LINE
8
DEFAULT_255_2_778
10
11.1124521
20
9.1281595
11
12.2663521
21
10.2819595
0
ARC
8
DEFAULT_255_2_778
10
13.7575359
20
7.0463538
40
2.7639484
50
35.9222336
51
53.230844
0
ARC
8
DEFAULT_255_2_778
10
13.3191792
20
6.7215785
40
3.3094824
50
22.0933119
51
36.0231572
0
ARC
8
DEFAULT_255_2_778
10
12.8984777
20
6.5471226
40
3.7649101
50
9.6537107
51
22.1452597
0
ARC
8
DEFAULT_255_2_778
10
12.5624686
20
6.4863845
40
4.1063479
50
359.943357
51
9.7029873
0
ARC
8
DEFAULT_255_2_778
10
12.5869
20
6.4767453
40
4.0819184
50
348.6439603
51
0.0783182
0
ARC
8
DEFAULT_255_2_778
10
12.9537945
20
6.4008852
40
3.7072701
50
336.0208052
51
348.6769027
0
ARC
8
DEFAULT_255_2_778
10
13.3763451
20
6.2100002
40
3.2436131
50
322.1824461
51
336.0682108
0
ARC
8
DEFAULT_255_2_778
10
13.7781642
20
5.8955703
40
2.7333974
50
306.7079301
51
322.224667
0
LINE
8
DEFAULT_255_2_778
10
15.8944308
20
3.6092952
11
15.3887308
21
4.1917952
0
LINE
8
DEFAULT_255_2_778
10
15.3887308
20
4.1917952
11
14.8215308
21
3.2185952
0
LINE
8
DEFAULT_255_2_778
10
14.8215308
20
3.2185952
11
15.8944308
21
3.6092952
0
LINE
8
DEFAULT_255_2_778
10
15.8895308
20
9.3657952
11
15.3838308
21
8.7832952
0
LINE
8
DEFAULT_255_2_778
10
15.3838308
20
8.7832952
11
14.8166308
21
9.7564952
0
LINE
8
DEFAULT_255_2_778
10
14.8166308
20
9.7564952
11
15.8895308
21
9.3657952
0
LINE
8
DEFAULT_255_1_234
10
8.5987137
20
14.6291433
11
8.5987137
21
13.4541
0
LINE
8
DEFAULT_255_1_234
10
8.5987137
20
13.4541
11
8.4493234
21
13.4541
0
LINE
8
DEFAULT_255_1_234
10
8.4493234
20
13.4541
11
8.4493234
21
14.4444133
0
LINE
8
DEFAULT_255_1_234
10
8.4493234
20
14.4444133
11
8.1497396
21
14.3343785
0
LINE
8
DEFAULT_255_1_234
10
8.1497396
20
14.3343785
11
8.1497396
21
14.4693117
0
LINE
8
DEFAULT_255_1_234
10
8.1497396
20
14.4693117
11
8.5754217
21
14.6291433
0
LINE
8
DEFAULT_255_1_234
10
8.5754217
20
14.6291433
11
8.5987137
21
14.6291433
0
LINE
8
DEFAULT_255_1_234
10
8.8683119
20
-1.7212208
11
8.8683119
21
-1.8425
0
LINE
8
DEFAULT_255_1_234
10
8.8683119
20
-1.8425
11
8.102084
21
-1.8425
0
LINE
8
DEFAULT_255_1_234
10
8.102084
20
-1.8425
11
8.102084
21
-1.7356779
0
LINE
8
DEFAULT_255_1_234
10
8.102084
20
-1.7356779
11
8.5068836
21
-1.2859005
0
LINE
8
DEFAULT_255_1_234
10
8.2281823
20
-1.0176405
11
8.0795952
21
-1.0176405
0
LINE
8
DEFAULT_255_1_234
10
8.5944296
20
-1.3814782
11
8.2811918
21
-1.7212208
0
LINE
8
DEFAULT_255_1_234
10
8.2811918
20
-1.7212208
11
8.8683119
21
-1.7212208
0
ARC
8
DEFAULT_255_1_234
10
7.157867
20
-0.0929473
40
1.8008286
50
318.5132453
51
320.7828378
0
ARC
8
DEFAULT_255_1_234
10
7.6865644
20
-0.5232574
40
1.1191493
50
320.7372736
51
323.9737074
0
ARC
8
DEFAULT_255_1_234
10
8.0785501
20
-0.8072639
40
0.6350923
50
323.8961724
51
328.6421089
0
ARC
8
DEFAULT_255_1_234
10
8.2832096
20
-0.9334969
40
0.3946393
50
328.8299013
51
331.789948
0
ARC
8
DEFAULT_255_1_234
10
8.3829274
20
-0.9849491
40
0.2824501
50
331.4255242
51
352.9364833
0
ARC
8
DEFAULT_255_1_234
10
8.3965775
20
-0.9880024
40
0.2685315
50
353.2248685
51
0.0169286
0
ARC
8
DEFAULT_255_1_234
10
8.4175652
20
-0.985705
40
0.2475536
50
359.4866256
51
15.9339782
0
ARC
8
DEFAULT_255_1_234
10
8.4682637
20
-0.9720714
40
0.1950618
50
16.1714718
51
43.5284424
0
ARC
8
DEFAULT_255_1_234
10
8.4759946
20
-0.9643427
40
0.184134
50
43.4415429
51
83.1661404
0
ARC
8
DEFAULT_255_1_234
10
8.4625864
20
-1.0380229
40
0.258926
50
82.160215
51
90.1505798
0
ARC
8
DEFAULT_255_1_234
10
8.4594291
20
-1.0917135
40
0.3126255
50
89.5460705
51
102.5418777
0
ARC
8
DEFAULT_255_1_234
10
8.4351377
20
-0.9886335
40
0.2067346
50
102.1739365
51
129.2061916
0
ARC
8
DEFAULT_255_1_234
10
8.4272449
20
-0.9761906
40
0.1921118
50
129.7279328
51
135.7542026
0
ARC
8
DEFAULT_255_1_234
10
8.4393977
20
-0.9858955
40
0.2075944
50
136.175737
51
166.3674722
0
ARC
8
DEFAULT_255_1_234
10
8.5400896
20
-1.0128818
40
0.3118201
50
165.9092917
51
178.8683903
0
ARC
8
DEFAULT_255_1_234
10
8.6265757
20
-1.0175821
40
0.3983935
50
178.438168
51
180.0083905
0
ARC
8
DEFAULT_255_1_234
10
8.4864359
20
-1.0136769
40
0.4068601
50
163.2878735
51
180.5581814
0
ARC
8
DEFAULT_255_1_234
10
8.4062621
20
-0.991616
40
0.3237344
50
133.454115
51
162.9470031
0
ARC
8
DEFAULT_255_1_234
10
8.4241162
20
-1.0106
40
0.349795
50
100.7869394
51
133.4384016
0
ARC
8
DEFAULT_255_1_234
10
8.4588934
20
-1.1654681
40
0.5084616
50
89.6605301
51
101.3704185
0
ARC
8
DEFAULT_255_1_234
10
8.4655273
20
-1.1593504
40
0.502348
50
78.2171172
51
90.4130393
0
ARC
8
DEFAULT_255_1_234
10
8.5010351
20
-0.9969363
40
0.3361092
50
55.9268222
51
78.4888551
0
ARC
8
DEFAULT_255_1_234
10
8.5206791
20
-0.9630676
40
0.2970617
50
47.9292255
51
55.4054003
0
ARC
8
DEFAULT_255_1_234
10
8.5308352
20
-0.9527498
40
0.2825983
50
4.3347696
51
48.0560701
0
ARC
8
DEFAULT_255_1_234
10
8.4212745
20
-0.9697399
40
0.393225
50
359.925209
51
5.5967654
0
ARC
8
DEFAULT_255_1_234
10
8.4641637
20
-0.9641184
40
0.3503892
50
337.8914096
51
358.9967724
0
ARC
8
DEFAULT_255_1_234
10
8.1928049
20
-0.8594294
40
0.6412172
50
326.9135351
51
338.3505194
0
ARC
8
DEFAULT_255_1_234
10
7.7942353
20
-0.6039716
40
1.1146189
50
319.6472867
51
327.095818
0
ARC
8
DEFAULT_255_1_234
10
7.4109356
20
-0.2878
40
1.6114559
50
317.2586784
51
319.9046139
0
ENDSEC
0
EOF