0
SECTION
2
HEADER
9
$MEASUREMENT
70
1
0
ENDSEC
0
SECTION
2
TABLES
0
TABLE
2
LTYPE
0
LTYPE
72
65
70
64
2
CONTINUOUS
3
______
73
0
40
0
0
ENDTAB
0
TABLE
2
LAYER
0
LAYER
2
DEFAULT_255_2_778
70
0
62
255
6
CONTINUOUS
0
LAYER
2
DEFAULT_255_1_388
70
0
62
255
6
CONTINUOUS
0
ENDTAB
0
ENDSEC
0
SECTION
2
ENTITIES
0
ARC
8
DEFAULT_255_2_778
10
12.0691059
20
5.1632294
40
3.9990575
50
164.958672
51
180.0541499
0
ARC
8
DEFAULT_255_2_778
10
12.0207844
20
5.1728887
40
3.9498864
50
139.5324886
51
164.9120823
0
ARC
8
DEFAULT_255_2_778
10
12.0294121
20
5.1696868
40
3.9585294
50
107.8307628
51
139.5782791
0
ARC
8
DEFAULT_255_2_778
10
12.0322531
20
5.1471154
40
3.9808888
50
91.6628438
51
107.7702122
0
ARC
8
DEFAULT_255_2_778
10
12.0386728
20
5.0473686
40
4.0807814
50
89.9989151
51
91.7123026
0
ARC
8
DEFAULT_255_2_778
10
12.0425333
20
5.128808
40
3.9993437
50
74.9592121
51
90.0541994
0
ARC
8
DEFAULT_255_2_778
10
12.0522483
20
5.1773176
40
3.9499763
50
49.5331489
51
74.9127022
0
ARC
8
DEFAULT_255_2_778
10
12.0491326
20
5.1687957
40
3.958483
50
17.8308607
51
49.5788931
0
ARC
8
DEFAULT_255_2_778
10
12.026535
20
5.1659475
40
3.9808695
50
1.662844
51
17.7702931
0
ARC
8
DEFAULT_255_2_778
10
11.9267688
20
5.1595272
40
4.0807814
50
359.9989151
51
1.7123026
0
ARC
8
DEFAULT_255_2_778
10
12.0082193
20
5.155666
40
3.9993326
50
344.9591794
51
0.05421
0
ARC
8
DEFAULT_255_2_778
10
12.0567606
20
5.1459458
40
3.9499331
50
319.5327264
51
344.9126214
0
ARC
8
DEFAULT_255_2_778
10
12.0481769
20
5.1491261
40
3.9585286
50
287.8301403
51
319.57834
0
ARC
8
DEFAULT_255_2_778
10
12.0452544
20
5.1719298
40
3.9811341
50
271.6627163
51
287.7696917
0
ARC
8
DEFAULT_255_2_778
10
12.0388274
20
5.2718019
40
4.0811521
50
269.9989151
51
271.7122237
0
ARC
8
DEFAULT_255_2_778
10
12.0349699
20
5.1896946
40
3.9990465
50
254.9586392
51
270.0541605
0
ARC
8
DEFAULT_255_2_778
10
12.0253055
20
5.1413414
40
3.9498431
50
229.5320661
51
254.9120015
0
ARC
8
DEFAULT_255_2_778
10
12.0285719
20
5.1500308
40
3.958575
50
197.8300424
51
229.577726
0
ARC
8
DEFAULT_255_2_778
10
12.0513494
20
5.1529462
40
3.9811535
50
181.6627161
51
197.7696108
0
ARC
8
DEFAULT_255_2_778
10
12.1512021
20
5.1593726
40
4.0811521
50
179.9989151
51
181.7122237
0
LINE
8
DEFAULT_255_2_778
10
8.0700501
20
5.1594499
11
8.0700501
21
5.1594499
0
LINE
8
DEFAULT_255_2_778
10
12.0388
20
9.1281499
11
12.0388
21
1.1906499
0
LINE
8
DEFAULT_255_2_778
10
16.0078667
20
5.1594
11
21.2995667
21
5.1594
0
LINE
8
DEFAULT_255_2_778
10
8.0700667
20
5.1594
11
2.7783667
21
5.1594
0
LINE
8
DEFAULT_255_2_778
10
13.3612
20
-0.1322834
11
13.3612
21
-2.7780834
0
LINE
8
DEFAULT_255_2_778
10
10.7164
20
-0.1322834
11
10.7164
21
-2.7780834
0
LINE
8
DEFAULT_255_2_778
10
10.7153667
20
-2.7780417
11
11.7737667
21
-4.1009417
0
LINE
8
DEFAULT_255_2_778
10
11.7737667
20
-4.1009417
11
9.6570667
21
-4.1009417
0
LINE
8
DEFAULT_255_2_778
10
9.6570667
20
-4.1009417
11
10.7153667
21
-2.7780417
0
LINE
8
DEFAULT_255_2_778
10
13.3619667
20
-4.1009417
11
14.4203667
21
-2.7780417
0
LINE
8
DEFAULT_255_2_778
10
14.4203667
20
-2.7780417
11
12.3036667
21
-2.7780417
0
LINE
8
DEFAULT_255_2_778
10
12.3036667
20
-2.7780417
11
13.3619667
21
-4.1009417
0
LINE
8
DEFAULT_255_2_778
10
12.0379834
20
5.4240166
11
11.6180834
21
3.8365166
0
LINE
8
DEFAULT_255_2_778
10
11.6180834
20
3.8365166
11
10.9881834
21
6.4823166
0
LINE
8
DEFAULT_255_2_778
10
10.9881834
20
6.4823166
11
10.3581834
21
3.8365166
0
LINE
8
DEFAULT_255_2_778
10
10.3581834
20
3.8365166
11
9.7281834
21
6.4823166
0
LINE
8
DEFAULT_255_2_778
10
9.7281834
20
6.4823166
11
9.3921834
21
5.1594166
0
LINE
8
DEFAULT_255_2_778
10
8.0700417
20
5.1594166
11
9.3929417
21
6.4823166
0
LINE
8
DEFAULT_255_2_778
10
9.3929417
20
6.4823166
11
9.3929417
21
3.8365166
0
LINE
8
DEFAULT_255_2_778
10
9.3929417
20
3.8365166
11
8.0700417
21
5.1594166
0
LINE
8
DEFAULT_255_2_778
10
14.6838417
20
5.1594166
11
16.0067417
21
6.4823166
0
LINE
8
DEFAULT_255_2_778
10
16.0067417
20
6.4823166
11
16.0067417
21
3.8365166
0
LINE
8
DEFAULT_255_2_778
10
16.0067417
20
3.8365166
11
14.6838417
21
5.1594166
0
LINE
8
DEFAULT_255_1_388
10
4.4956985
20
7.4290148
11
4.4956985
21
6.1071
0
LINE
8
DEFAULT_255_1_388
10
4.4956985
20
6.1071
11
4.3276355
21
6.1071
0
LINE
8
DEFAULT_255_1_388
10
4.3276355
20
6.1071
11
4.3276355
21
7.221195
0
LINE
8
DEFAULT_255_1_388
10
4.3276355
20
7.221195
11
3.990606
21
7.0974066
0
LINE
8
DEFAULT_255_1_388
10
3.990606
20
7.0974066
11
3.990606
21
7.2492055
0
LINE
8
DEFAULT_255_1_388
10
3.990606
20
7.2492055
11
4.4694951
21
7.4290148
0
LINE
8
DEFAULT_255_1_388
10
4.4694951
20
7.4290148
11
4.4956985
21
7.4290148
0
LINE
8
DEFAULT_255_1_388
10
19.1056318
20
6.2435382
11
19.1056318
21
6.1071
0
LINE
8
DEFAULT_255_1_388
10
19.1056318
20
6.1071
11
18.2436313
21
6.1071
0
LINE
8
DEFAULT_255_1_388
10
18.2436313
20
6.1071
11
18.2436313
21
6.2272741
0
LINE
8
DEFAULT_255_1_388
10
18.2436313
20
6.2272741
11
18.6990278
21
6.7332702
0
LINE
8
DEFAULT_255_1_388
10
18.3854909
20
7.0350607
11
18.2183315
21
7.0350607
0
LINE
8
DEFAULT_255_1_388
10
18.7975163
20
6.625746
11
18.4451262
21
6.2435382
0
LINE
8
DEFAULT_255_1_388
10
18.4451262
20
6.2435382
11
19.1056318
21
6.2435382
0
ARC
8
DEFAULT_255_1_388
10
17.1814337
20
8.0752983
40
2.0258655
50
318.5132526
51
320.7829045
0
ARC
8
DEFAULT_255_1_388
10
17.7762294
20
7.5911929
40
1.2589638
50
320.7372878
51
323.9739031
0
ARC
8
DEFAULT_255_1_388
10
18.2171226
20
7.2717554
40
0.7145141
50
323.8962701
51
328.64194
0
ARC
8
DEFAULT_255_1_388
10
18.4473484
20
7.1297545
40
0.4440242
50
328.8294576
51
331.7891185
0
ARC
8
DEFAULT_255_1_388
10
18.5595804
20
7.0718374
40
0.3177517
50
331.4254512
51
352.9365785
0
ARC
8
DEFAULT_255_1_388
10
18.5748804
20
7.068405
40
0.3021496
50
353.2257659
51
0.0166158
0
ARC
8
DEFAULT_255_1_388
10
18.5985564
20
7.0709894
40
0.2784847
50
359.486299
51
15.9343185
0
ARC
8
DEFAULT_255_1_388
10
18.6555831
20
7.0863269
40
0.2194403
50
16.1712913
51
43.5286088
0
ARC
8
DEFAULT_255_1_388
10
18.6642776
20
7.0950191
40
0.2071504
50
43.4417391
51
83.1661095
0
ARC
8
DEFAULT_255_1_388
10
18.6491937
20
7.0121316
40
0.2912888
50
82.160179
51
90.1505708
0
ARC
8
DEFAULT_255_1_388
10
18.6456418
20
6.9517279
40
0.3517025
50
89.5460741
51
102.5418361
0
ARC
8
DEFAULT_255_1_388
10
18.6183138
20
7.0676933
40
0.2325748
50
102.1738499
51
129.206123
0
ARC
8
DEFAULT_255_1_388
10
18.6094592
20
7.0816664
40
0.2161591
50
129.72865
51
135.753947
0
ARC
8
DEFAULT_255_1_388
10
18.6231074
20
7.0707728
40
0.2335433
50
136.1757367
51
166.3673339
0
ARC
8
DEFAULT_255_1_388
10
18.7363762
20
7.0404148
40
0.3507873
50
165.9090694
51
178.8684636
0
ARC
8
DEFAULT_255_1_388
10
18.8339534
20
7.0351263
40
0.4484624
50
178.4391136
51
180.0083808
0
ARC
8
DEFAULT_255_1_388
10
18.6760235
20
7.0395197
40
0.4577138
50
163.2878482
51
180.5581842
0
ARC
8
DEFAULT_255_1_388
10
18.5858276
20
7.0643393
40
0.3641968
50
133.4540601
51
162.947111
0
ARC
8
DEFAULT_255_1_388
10
18.6059158
20
7.0429789
40
0.3935189
50
100.7869829
51
133.4382499
0
ARC
8
DEFAULT_255_1_388
10
18.6450403
20
6.8687399
40
0.5720313
50
89.660664
51
101.3702276
0
ARC
8
DEFAULT_255_1_388
10
18.6525012
20
6.8756263
40
0.5651495
50
78.2172678
51
90.412935
0
ARC
8
DEFAULT_255_1_388
10
18.6924478
20
7.0583511
40
0.378122
50
55.9269121
51
78.4888449
0
ARC
8
DEFAULT_255_1_388
10
18.7145193
20
7.0964187
40
0.3342379
50
47.929771
51
55.4049217
0
ARC
8
DEFAULT_255_1_388
10
18.7259723
20
7.1080618
40
0.3179217
50
4.334829
51
48.0560205
0
ARC
8
DEFAULT_255_1_388
10
18.6027525
20
7.0889487
40
0.442341
50
359.9251713
51
5.5971671
0
ARC
8
DEFAULT_255_1_388
10
18.650968
20
7.0952728
40
0.3941854
50
337.8914027
51
358.9967534
0
ARC
8
DEFAULT_255_1_388
10
18.345725
20
7.2130295
40
0.7213271
50
326.9132501
51
338.3508308
0
ARC
8
DEFAULT_255_1_388
10
17.8973362
20
7.5004105
40
1.2538973
50
319.6471833
51
327.0959558
0
ARC
8
DEFAULT_255_1_388
10
17.466002
20
7.856205
40
1.8129975
50
317.2588228
51
319.9045804
0
ENDSEC
0
EOF