0
SECTION
2
HEADER
9
$MEASUREMENT
70
1
0
ENDSEC
0
SECTION
2
TABLES
0
TABLE
2
LTYPE
0
LTYPE
72
65
70
64
2
CONTINUOUS
3
______
73
0
40
0
0
ENDTAB
0
TABLE
2
LAYER
0
LAYER
2
DEFAULT_255_2_778
70
0
62
255
6
CONTINUOUS
0
LAYER
2
DEFAULT_255_1_388
70
0
62
255
6
CONTINUOUS
0
ENDTAB
0
ENDSEC
0
SECTION
2
ENTITIES
0
LINE
8
DEFAULT_255_2_778
10
19.9760335
20
2.5135499
11
9.3927335
21
2.5135499
0
LINE
8
DEFAULT_255_2_778
10
9.3927335
20
2.5135499
11
9.3927335
21
10.4510499
0
LINE
8
DEFAULT_255_2_778
10
9.3927335
20
10.4510499
11
19.9760335
21
10.4510499
0
LINE
8
DEFAULT_255_2_778
10
19.9760335
20
10.4510499
11
19.9760335
21
2.5135499
0
LINE
8
DEFAULT_255_2_778
10
12.0385
20
2.5135499
11
12.0385
21
10.4510499
0
LINE
8
DEFAULT_255_2_778
10
14.6844
20
2.5135499
11
14.6844
21
10.4510499
0
LINE
8
DEFAULT_255_2_778
10
17.3302
20
5.1593499
11
17.3302
21
-2.7781501
0
LINE
8
DEFAULT_255_2_778
10
17.3302
20
7.8051499
11
17.3302
21
15.7426499
0
LINE
8
DEFAULT_255_2_778
10
19.9760834
20
4.101
11
20.1964834
21
5.6885
0
LINE
8
DEFAULT_255_2_778
10
20.1964834
20
5.6885
11
20.6375834
21
2.5135
0
LINE
8
DEFAULT_255_2_778
10
20.6375834
20
2.5135
11
21.0785834
21
5.6885
0
LINE
8
DEFAULT_255_2_778
10
21.0785834
20
5.6885
11
21.5193834
21
2.5135
0
LINE
8
DEFAULT_255_2_778
10
21.5193834
20
2.5135
11
21.9604834
21
5.6885
0
LINE
8
DEFAULT_255_2_778
10
21.9604834
20
5.6885
11
22.4014834
21
2.5135
0
LINE
8
DEFAULT_255_2_778
10
22.4014834
20
2.5135
11
22.6218834
21
4.101
0
LINE
8
DEFAULT_255_2_778
10
16.53645
20
5.1593
11
18.12395
21
5.1593
0
LINE
8
DEFAULT_255_2_778
10
16.53645
20
7.8052
11
18.12395
21
7.8052
0
LINE
8
DEFAULT_255_2_778
10
11.5093333
20
8.5989416
11
12.5676333
21
8.5989416
0
LINE
8
DEFAULT_255_2_778
10
12.5676333
20
8.5989416
11
12.0385333
21
10.4510416
0
LINE
8
DEFAULT_255_2_778
10
12.0385333
20
10.4510416
11
11.5093333
21
8.5989416
0
LINE
8
DEFAULT_255_2_778
10
4.1010834
20
5.1593
11
6.7468834
21
5.1593
0
LINE
8
DEFAULT_255_2_778
10
6.7468417
20
6.4822166
11
6.7468417
21
3.8364166
0
LINE
8
DEFAULT_255_2_778
10
6.7468417
20
3.8364166
11
8.0697417
21
5.1593166
0
LINE
8
DEFAULT_255_2_778
10
8.0697417
20
5.1593166
11
6.7468417
21
6.4822166
0
LINE
8
DEFAULT_255_2_778
10
8.0697417
20
5.1593
11
9.3926417
21
5.1593
0
LINE
8
DEFAULT_255_1_388
10
14.8324985
20
-0.5089852
11
14.8324985
21
-1.8309
0
LINE
8
DEFAULT_255_1_388
10
14.8324985
20
-1.8309
11
14.6644355
21
-1.8309
0
LINE
8
DEFAULT_255_1_388
10
14.6644355
20
-1.8309
11
14.6644355
21
-0.716805
0
LINE
8
DEFAULT_255_1_388
10
14.6644355
20
-0.716805
11
14.327406
21
-0.8405934
0
LINE
8
DEFAULT_255_1_388
10
14.327406
20
-0.8405934
11
14.327406
21
-0.6887945
0
LINE
8
DEFAULT_255_1_388
10
14.327406
20
-0.6887945
11
14.8062951
21
-0.5089852
0
LINE
8
DEFAULT_255_1_388
10
14.8062951
20
-0.5089852
11
14.8324985
21
-0.5089852
0
LINE
8
DEFAULT_255_1_388
10
15.1369318
20
13.6021382
11
15.1369318
21
13.4657
0
LINE
8
DEFAULT_255_1_388
10
15.1369318
20
13.4657
11
14.2749313
21
13.4657
0
LINE
8
DEFAULT_255_1_388
10
14.2749313
20
13.4657
11
14.2749313
21
13.5858741
0
LINE
8
DEFAULT_255_1_388
10
14.2749313
20
13.5858741
11
14.7303278
21
14.0918702
0
LINE
8
DEFAULT_255_1_388
10
14.4167909
20
14.3936607
11
14.2496315
21
14.3936607
0
LINE
8
DEFAULT_255_1_388
10
14.8288163
20
13.984346
11
14.4764262
21
13.6021382
0
LINE
8
DEFAULT_255_1_388
10
14.4764262
20
13.6021382
11
15.1369318
21
13.6021382
0
ARC
8
DEFAULT_255_1_388
10
13.2127337
20
15.4338983
40
2.0258655
50
318.5132526
51
320.7829045
0
ARC
8
DEFAULT_255_1_388
10
13.8075294
20
14.9497929
40
1.2589638
50
320.7372878
51
323.9739031
0
ARC
8
DEFAULT_255_1_388
10
14.2484226
20
14.6303554
40
0.7145141
50
323.8962701
51
328.64194
0
ARC
8
DEFAULT_255_1_388
10
14.4786484
20
14.4883545
40
0.4440242
50
328.8294576
51
331.7891185
0
ARC
8
DEFAULT_255_1_388
10
14.5908804
20
14.4304374
40
0.3177517
50
331.4254512
51
352.9365785
0
ARC
8
DEFAULT_255_1_388
10
14.6061804
20
14.427005
40
0.3021496
50
353.2257659
51
0.0166158
0
ARC
8
DEFAULT_255_1_388
10
14.6298564
20
14.4295894
40
0.2784847
50
359.486299
51
15.9343185
0
ARC
8
DEFAULT_255_1_388
10
14.6868831
20
14.4449269
40
0.2194403
50
16.1712913
51
43.5286088
0
ARC
8
DEFAULT_255_1_388
10
14.6955776
20
14.4536191
40
0.2071504
50
43.4417391
51
83.1661095
0
ARC
8
DEFAULT_255_1_388
10
14.6804937
20
14.3707316
40
0.2912888
50
82.160179
51
90.1505708
0
ARC
8
DEFAULT_255_1_388
10
14.6769418
20
14.3103279
40
0.3517025
50
89.5460741
51
102.5418361
0
ARC
8
DEFAULT_255_1_388
10
14.6496138
20
14.4262933
40
0.2325748
50
102.1738499
51
129.206123
0
ARC
8
DEFAULT_255_1_388
10
14.6407592
20
14.4402664
40
0.2161591
50
129.72865
51
135.753947
0
ARC
8
DEFAULT_255_1_388
10
14.6544074
20
14.4293728
40
0.2335433
50
136.1757367
51
166.3673339
0
ARC
8
DEFAULT_255_1_388
10
14.7676762
20
14.3990148
40
0.3507873
50
165.9090694
51
178.8684636
0
ARC
8
DEFAULT_255_1_388
10
14.8652534
20
14.3937263
40
0.4484624
50
178.4391136
51
180.0083808
0
ARC
8
DEFAULT_255_1_388
10
14.7073235
20
14.3981197
40
0.4577138
50
163.2878482
51
180.5581842
0
ARC
8
DEFAULT_255_1_388
10
14.6171276
20
14.4229393
40
0.3641968
50
133.4540601
51
162.947111
0
ARC
8
DEFAULT_255_1_388
10
14.6372158
20
14.4015789
40
0.3935189
50
100.7869829
51
133.4382499
0
ARC
8
DEFAULT_255_1_388
10
14.6763403
20
14.2273399
40
0.5720313
50
89.660664
51
101.3702276
0
ARC
8
DEFAULT_255_1_388
10
14.6838012
20
14.2342263
40
0.5651495
50
78.2172678
51
90.412935
0
ARC
8
DEFAULT_255_1_388
10
14.7237478
20
14.4169511
40
0.378122
50
55.9269121
51
78.4888449
0
ARC
8
DEFAULT_255_1_388
10
14.7458193
20
14.4550187
40
0.3342379
50
47.929771
51
55.4049217
0
ARC
8
DEFAULT_255_1_388
10
14.7572723
20
14.4666618
40
0.3179217
50
4.334829
51
48.0560205
0
ARC
8
DEFAULT_255_1_388
10
14.6340525
20
14.4475487
40
0.442341
50
359.9251713
51
5.5971671
0
ARC
8
DEFAULT_255_1_388
10
14.682268
20
14.4538728
40
0.3941854
50
337.8914027
51
358.9967534
0
ARC
8
DEFAULT_255_1_388
10
14.377025
20
14.5716295
40
0.7213271
50
326.9132501
51
338.3508308
0
ARC
8
DEFAULT_255_1_388
10
13.9286362
20
14.8590105
40
1.2538973
50
319.6471833
51
327.0959558
0
ARC
8
DEFAULT_255_1_388
10
13.497302
20
15.214805
40
1.8129975
50
317.2588228
51
319.9045804
0
LINE
8
DEFAULT_255_1_388
10
5.8290985
20
7.4290148
11
5.8290985
21
6.1071
0
LINE
8
DEFAULT_255_1_388
10
5.8290985
20
6.1071
11
5.6610355
21
6.1071
0
LINE
8
DEFAULT_255_1_388
10
5.6610355
20
6.1071
11
5.6610355
21
7.221195
0
LINE
8
DEFAULT_255_1_388
10
5.6610355
20
7.221195
11
5.324006
21
7.0974066
0
LINE
8
DEFAULT_255_1_388
10
5.324006
20
7.0974066
11
5.324006
21
7.2492055
0
LINE
8
DEFAULT_255_1_388
10
5.324006
20
7.2492055
11
5.8028951
21
7.4290148
0
LINE
8
DEFAULT_255_1_388
10
5.8028951
20
7.4290148
11
5.8290985
21
7.4290148
0
LINE
8
DEFAULT_255_1_388
10
7.1808309
20
6.2435382
11
7.1808309
21
6.1071
0
LINE
8
DEFAULT_255_1_388
10
7.1808309
20
6.1071
11
6.3188304
21
6.1071
0
LINE
8
DEFAULT_255_1_388
10
6.3188304
20
6.1071
11
6.3188304
21
6.2272741
0
LINE
8
DEFAULT_255_1_388
10
6.3188304
20
6.2272741
11
6.7742269
21
6.7332702
0
LINE
8
DEFAULT_255_1_388
10
6.46069
20
7.0350607
11
6.2935306
21
7.0350607
0
LINE
8
DEFAULT_255_1_388
10
6.8727154
20
6.625746
11
6.5203253
21
6.2435382
0
LINE
8
DEFAULT_255_1_388
10
6.5203253
20
6.2435382
11
7.1808309
21
6.2435382
0
ARC
8
DEFAULT_255_1_388
10
5.2566329
20
8.0752983
40
2.0258655
50
318.5132526
51
320.7829045
0
ARC
8
DEFAULT_255_1_388
10
5.8514286
20
7.5911929
40
1.2589638
50
320.7372878
51
323.9739031
0
ARC
8
DEFAULT_255_1_388
10
6.2923217
20
7.2717554
40
0.7145141
50
323.8962701
51
328.64194
0
ARC
8
DEFAULT_255_1_388
10
6.5225475
20
7.1297545
40
0.4440242
50
328.8294576
51
331.7891185
0
ARC
8
DEFAULT_255_1_388
10
6.6347795
20
7.0718374
40
0.3177517
50
331.4254512
51
352.9365785
0
ARC
8
DEFAULT_255_1_388
10
6.6500795
20
7.068405
40
0.3021496
50
353.2257659
51
0.0166158
0
ARC
8
DEFAULT_255_1_388
10
6.6737555
20
7.0709894
40
0.2784847
50
359.486299
51
15.9343185
0
ARC
8
DEFAULT_255_1_388
10
6.7307822
20
7.0863269
40
0.2194403
50
16.1712913
51
43.5286088
0
ARC
8
DEFAULT_255_1_388
10
6.7394767
20
7.0950191
40
0.2071504
50
43.4417391
51
83.1661095
0
ARC
8
DEFAULT_255_1_388
10
6.7243928
20
7.0121316
40
0.2912888
50
82.160179
51
90.1505708
0
ARC
8
DEFAULT_255_1_388
10
6.720841
20
6.9517279
40
0.3517025
50
89.5460741
51
102.5418361
0
ARC
8
DEFAULT_255_1_388
10
6.693513
20
7.0676933
40
0.2325748
50
102.1738499
51
129.206123
0
ARC
8
DEFAULT_255_1_388
10
6.6846583
20
7.0816664
40
0.2161591
50
129.72865
51
135.753947
0
ARC
8
DEFAULT_255_1_388
10
6.6983065
20
7.0707728
40
0.2335433
50
136.1757367
51
166.3673339
0
ARC
8
DEFAULT_255_1_388
10
6.8115754
20
7.0404148
40
0.3507873
50
165.9090694
51
178.8684636
0
ARC
8
DEFAULT_255_1_388
10
6.9091525
20
7.0351263
40
0.4484624
50
178.4391136
51
180.0083808
0
ARC
8
DEFAULT_255_1_388
10
6.7512227
20
7.0395197
40
0.4577138
50
163.2878482
51
180.5581842
0
ARC
8
DEFAULT_255_1_388
10
6.6610268
20
7.0643393
40
0.3641968
50
133.4540601
51
162.947111
0
ARC
8
DEFAULT_255_1_388
10
6.6811149
20
7.0429789
40
0.3935189
50
100.7869829
51
133.4382499
0
ARC
8
DEFAULT_255_1_388
10
6.7202394
20
6.8687399
40
0.5720313
50
89.660664
51
101.3702276
0
ARC
8
DEFAULT_255_1_388
10
6.7277003
20
6.8756263
40
0.5651495
50
78.2172678
51
90.412935
0
ARC
8
DEFAULT_255_1_388
10
6.7676469
20
7.0583511
40
0.378122
50
55.9269121
51
78.4888449
0
ARC
8
DEFAULT_255_1_388
10
6.7897184
20
7.0964187
40
0.3342379
50
47.929771
51
55.4049217
0
ARC
8
DEFAULT_255_1_388
10
6.8011715
20
7.1080618
40
0.3179217
50
4.334829
51
48.0560205
0
ARC
8
DEFAULT_255_1_388
10
6.6779516
20
7.0889487
40
0.442341
50
359.9251713
51
5.5971671
0
ARC
8
DEFAULT_255_1_388
10
6.7261671
20
7.0952728
40
0.3941854
50
337.8914027
51
358.9967534
0
ARC
8
DEFAULT_255_1_388
10
6.4209241
20
7.2130295
40
0.7213271
50
326.9132501
51
338.3508308
0
ARC
8
DEFAULT_255_1_388
10
5.9725353
20
7.5004105
40
1.2538973
50
319.6471833
51
327.0959558
0
ARC
8
DEFAULT_255_1_388
10
5.5412011
20
7.856205
40
1.8129975
50
317.2588228
51
319.9045804
0
ENDSEC
0
EOF